Oops, an error
Loading. Please wait.

I Was Born In Omaha Chords

904 views 3 this week
no commentswrite comment
1 2 3 4 5
please rate
add to favorites
launch autoscroll
font size
0
reset
transpose
0
reset
display chords
guitar tuner
Autoscroll
slow
fast
+/-
esc
set tempo
stop
Help us to improve Ultimate-Guitar.com Take our survey!
×
Contributor
Ad*Astra 618
-------------------------------------------------------------------------------
                             I Was Born In Omaha by The Gloria Record
-------------------------------------------------------------------------------
Tabbed by: Ad*Astra

Tuning: Standard

I use two different G chords throughout the song. For the verses I use the open 320003 
the two progression changes when it switches to G-Bm-A or the outro Bm-A-G, I use
barre chord 355433. I put an asterisk where to use the barre chord.


D                  G
  I was born in Omaha
                      Bm
In my mother's tired arms
                          A
After all our fight was gone
                              D
I bet it felt good just to lie there
                       G
Drinking in the warm light
                           Bm
And breathing through the tubes
                          A                    G
As our lovers filled the room with conversation

|----------------------------------------|
|-----------0~-----------0~--------------|
|------------------0---------------------|
|-----0---------------0------------------| x2
|--------2-------------------------------|
|--3-------------------------------------|

G

D                        G
  I was named to bear you like
                Bm
A float in a parade
              A                  D
My piano fingers tugging at the cord
                  G
And so much extra skin
                           Bm
That I still can't fill it in
                           A
Wonder whose it could have been
                               G*
'Cause it don't fit me comfortably
                      Bm
And the nurses stopping in
                    A
To see that you are fine
G*               Bm
   To open up the blinds
                    A
And shower you with sunshine

D                  G
  I was born in Omaha
                          Bm
Born to steal her skeptic heart
              A                   D
My piano fingers tugging at the cord
                        G
'Cause life in a bubble can be
                   Bm
The sweetest thing sometimes
                            A
With the world just passing by
                   G
Outside your window

|----------------------------------------|
|-----------0~-----------0~--------------|
|------------------0---------------------|
|-----0---------------0------------------| x2
|--------2-------------------------------|
|--3-------------------------------------|

A

Bm  A  G*  x7

Bm  A  G*
         Dream over
Bm
  Dream over
A
  Dream over
G*
  Dream over

(fade out)
comments
We did not receive enough feedback on this tab! Please rate:
print report bad tab
1 2 3 4 5
I want to post or [tab]
guest
You may want to rate the tab now too:
select rating
Please do not post tabs as comments. Select "correction" instead!