Oops, an error
Loading. Please wait.

A Bad Debt Follows You Bass Tab

31 views 1 this week
no commentswrite comment
1 2 3 4 5
3 more votes to show rating
add to favorites
launch autoscroll
font size
0
reset
guitar tuner
Autoscroll
slow
fast
+/-
esc
set tempo
stop
Help us to improve Ultimate-Guitar.com Take our survey!
×
Author
Difficulty
novice
[Intro]

G|-----------------|-----------------|-----------------|-----------------| (x4)
D|--7--------------|--7--------------|--7--------------|--7--------------|
A|----5--5--5-5-5--|----5--5--5-5-5--|----5--5--5-5-5--|----5--5--5-5-5--|
E|-----------------|-----------------|-----------------|-----------------|


G|--------------------|----------|-----------|
D|-----------5--7--8--|--8-7--5--|-8-8-7--5--|
A|--5--7--8-----------|----------|-----------|
E|--------------------|----------|-----------|


[Verse 1]

G|--------------|--------------|--------------|--------------| (x2)
D|-----------7--|-----------7--|--5--7--8--7--|--5--7--8-----|
A|--5--7--8-----|--5--7--8-----|--------------|-----------7--|
E|--------------|--------------|--------------|--------------|


[Chorus]

G|-----------------|-----------------|-----------------|
D|--7--------------|--7--------------|--7--------------|
A|----5--5--5-5-5--|----5--5--5-5-5--|----5--5--5-5-5--|
E|-----------------|-----------------|-----------------|


G|--------------------|----------|----------|
D|-----------5--7--8--|--8-7--5--|--8-7--5--|
A|--5--7--8-----------|----------|----------|
E|--------------------|----------|----------|


[Verse 2]

G|--------------|--------------|--------------|--------------| (x2)
D|-----------7--|-----------7--|--5--7--8--7--|--5--7--8-----|
A|--5--7--8-----|--5--7--8-----|--------------|-----------7--|
E|--------------|--------------|--------------|--------------|


[Chorus]

G|-----------------|-----------------|-----------------|
D|--7--------------|--7--------------|--7--------------|
A|----5--5--5-5-5--|----5--5--5-5-5--|----5--5--5-5-5--|
E|-----------------|-----------------|-----------------|


G|--------------------|----------|----------|
D|-----------5--7--8--|--8-7--5--|--8-7--5--|
A|--5--7--8-----------|----------|----------|
E|--------------------|----------|----------|


[Instrumental]

G|-----------------|-----------------|-----------------|-----------------| 
D|--7--------------|--7--------------|--7--------------|--7--------------|
A|----5--5--5-5-5--|----5--5--5-5-5--|----5--5--5-5-5--|----5--5--5-5-5--|
E|-----------------|-----------------|-----------------|-----------------|


G|-----------------|-----------------|-----------------|
D|--7--------------|--7--------------|--7--------------|
A|----5--5--5-5-5--|----5--5--5-5-5--|----5--5--5-5-5--|
E|-----------------|-----------------|-----------------|


[Chorus]

G|-----------------|-----------------|-----------------|-----------------| (x2)
D|--7--------------|--7--------------|--7--------------|--7--------------|
A|----5--5--5-5-5--|----5--5--5-5-5--|----5--5--5-5-5--|----5--5--5-5-5--|
E|-----------------|-----------------|-----------------|-----------------|


G|--------------------|----------|----------|
D|-----------5--7--8--|--8-7--5--|--8-7--5--|
A|--5--7--8-----------|----------|----------|
E|--------------------|----------|----------|


[Outro]

G|-----------5--------|-----------5--------|-----------5--------|--------------|--------------|
D|--5--7--8-----------|--5--7--8-----------|--5--7--8-----------|--5--7--8--7--|--5--7--8-----|
A|---------------8-8--|---------------8-8--|---------------8-8--|--------------|-----------7--|
E|--------------------|--------------------|--------------------|--------------|--------------|


G|----------------|----------|
D|----------------|-------7--|
A|--------r-------|--7-8-----|
E|----------------|----------|



*************************

| r : rest

*************************

in regular sequence!
Suggest correction
Give kudos to tab author, rate the tab!
1 2 3 4 5
comments
print report bad tab
guest
You may want to rate the tab now too:
select rating
Wanna post a correction for this tab? Suggest correction