Oops, an error
Loading. Please wait.

As Long As That Bass Tab

22 views 1 this week
no commentswrite comment
1 2 3 4 5
3 more votes to show rating
add to favorites
launch autoscroll
font size
0
reset
guitar tuner
Autoscroll
slow
fast
+/-
esc
set tempo
stop
Help us to improve Ultimate-Guitar.com Take our survey!
×
Author
Difficulty
novice
[Intro]

G|-------------|--9-7--------|----------------| (x2)
D|----------9--|------10--9--|----------------|
A|--7-9-10-----|-------------|-7-7------------|
E|-------------|-------------|----------------|


[Verse 1]

G|--9-11-12-11-9-------|--11-12-14-12-11-------|----------------|
D|---------------12-9--|-----------------12--\-|----------------|
A|---------------------|-----------------------|-7---7-7--------|
E|---------------------|-----------------------|----------------|

    . .   . .  .          .   .  .  .  .  
G|--9-11-12-11-9-.-----|--11-12-14-12-11-------|-9--------------|
D|---------------12-9--|-----------------12--\-|----------------|
A|---------------------|-----------------------|----------------|
E|---------------------|-----------------------|----------------|


[Chorus]

G|------------|-------------|-----------|-----------|-----------|
D|--9---10-7--|--10---12-9--|-----------|-----------|-----------|
A|------------|-------------|--7---7-7--|--7---7-7--|--7---7-7--|
E|------------|-------------|-----------|-----------|-----------|


[Verse 2]

G|-------------|--9-7--------|----------------| (x2)
D|----------9--|------10--9--|----------------|
A|--7-9-10-----|-------------|-7-7------------|
E|-------------|-------------|----------------|


[Verse 3]

G|--9-11-12-11-9-------|--11-12-14-12-11-------|----------------|
D|---------------12-9--|-----------------12--\-|----------------|
A|---------------------|-----------------------|-7---7-7--------|
E|---------------------|-----------------------|----------------|


G|-------------------|------------------|--9---9---------|
D|-----------9-7-----|--10-9-7--7-------|--------10------|
A|--12-10-9------10--|------------10-9--|----------------|
E|-------------------|------------------|----------------|


[Chorus]

G|------------|-------------|
D|--9---10-7--|--10---12-9--|
A|------------|-------------|
E|------------|-------------|


G|-----------------|-----------|--12-12-12-11-9-------|--9---9-9-7----| (x2)
D|-----------------|-7-7-------|----------------12-9--|------------9--|
A|--7--9-10--9-7-9-|-----10-9--|----------------------|---------------|
E|-----------------|-----------|----------------------|---------------|


[Verse 4]

G|-------------|--9-7--------|----------------| (x2)
D|----------9--|------10--9--|----------------|
A|--7-9-10-----|-------------|-7-7------------|
E|-------------|-------------|----------------|


[Verse 5]

G|--9-11-12-11-9-------|--11-12-14-12-11-------|----------------|
D|---------------12-9--|-----------------12--\-|----------------|
A|---------------------|-----------------------|-7---7-7--------|
E|---------------------|-----------------------|----------------|

    . .   . .  .          .   .  .  .  .  
G|--9-11-12-11-9--.----|--11-12-14-12-11-------|-9--------------|
D|---------------12-9--|-----------------12--\-|----------------|
A|---------------------|-----------------------|----------------|
E|---------------------|-----------------------|----------------|


[Chorus]

G|------------|-------------|-----------|-----------|-----------|
D|--9---10-7--|--10---12-9--|-----------|-----------|-----------|
A|------------|-------------|--7---7-7--|--7---7-7--|--7---7-7--|
E|------------|-------------|-----------|-----------|-----------|


[Verse 6]

G|-------------|--9-7--------|----------------| (x2)
D|----------9--|------10--9--|----------------|
A|--7-9-10-----|-------------|-7-7------------|
E|-------------|-------------|----------------|


[Verse 7]

G|--9-11-12-11-9-------|--11-12-14-12-11-------|----------------|
D|---------------12-9--|-----------------12--\-|----------------|
A|---------------------|-----------------------|-7---7-7--------|
E|---------------------|-----------------------|----------------|


G|-------------------|------------------|--9---9---------|
D|-----------9-7-----|--10-9-7--7-------|--------10------|
A|--12-10-9------10--|------------10-9--|----------------|
E|-------------------|------------------|----------------|


[Chorus]

G|------------|-------------|
D|--9---10-7--|--10---12-9--|
A|------------|-------------|
E|------------|-------------|


G|-----------------|-----------|--12-12-12-11-9-------|--9--9-9-9-7----| 
D|-----------------|-7-7-------|----------------12-9--|-------------9--|
A|--7--9-10--9-7-9-|-----10-9--|----------------------|----------------|
E|-----------------|-----------|----------------------|----------------|


G|-----------------|-----------|--12-12-12-11-9-------|--9--9-9-7-------| 
D|-----------------|-7-7-------|----------------12-9--|------------9----|
A|--7--9-10--9-7-9-|-----10-9--|----------------------|--------------10-|
E|-----------------|-----------|----------------------|-----------------|


[Bridge]

G|----------------|--------------|-----------------|---------------|
D|---------9-9-9--|--------------|----------9-9-9--|---------------|
A|-9-9-9-9--------|--7------0----|--9-9-9-9--------|--7------0-----|
E|----------------|-------8---8--|-----------------|-------8---7-7-|


G|----------------|--------------|------------------|-----------------|
D|---------9-9-9--|--------------|----------9-9-9-9-|-----------------|
A|-9-9-9-9--------|--7------0----|--9-9-9-9---------|--7-7-7-7--------|
E|----------------|-------8---8--|------------------|----------8-8-8--|


[Verse 8]

G|-------------|--9-7--------|----------------| (x2)
D|----------9--|------10--9--|----------------|
A|--7-9-10-----|-------------|-7-7------------|
E|-------------|-------------|----------------|


[Verse 9]

G|--9-11-12-11-9-------|--11-12-14-12-11-------|----------------|
D|---------------12-9--|-----------------12--\-|----------------|
A|---------------------|-----------------------|-7---7-7--------|
E|---------------------|-----------------------|----------------|


G|-------------------|------------------|--9---9---------|
D|-----------9-7-----|--10-9-7--7-------|--------10------|
A|--12-10-9------10--|------------10-9--|----------------|
E|-------------------|------------------|----------------|


[Chorus]

G|------------|-------------|
D|--9---10-7--|--10---12-9--|
A|------------|-------------|
E|------------|-------------|

                                   .  .  .               . . .
G|-----------------|-----------|--12-12-12-11-9-------|--9-9-9-7-----| 
D|-----------------|-7-7-------|----------------12-9--|-----------9--|
A|--7--9-10--9-7-9-|-----10-9--|----------------------|--------------|
E|-----------------|-----------|----------------------|--------------|

                                   . .  .   .  .
G|-----------------|-----------|--12-12-12-12-12-11-9----|-9---9-9-7----| 
D|-----------------|-7-7-------|----------------------12-|-----------9--|
A|--7--9-10--9-7-9-|-----10-9--|-------------------------|--------------|
E|-----------------|-----------|-------------------------|--------------|


[Outro]

G|------12-11-9-----|------12-11-9-----|------12-11-9-----|------12-11-9-----| 
D|--------------12--|--------------12--|--------------12--|--------------12--|
A|--7---------------|--7---------------|--7---------------|--7---------------|
E|------------------|------------------|------------------|------------------|


G|------12-11-9-----|------12-11-9-----|------12-11-9-----|--9---12-11-9-----| 
D|--------------12--|--------------12--|--------------12--|--------------12--|
A|--7---------------|--7---------------|--7---------------|------------------|
E|------------------|------------------|------------------|------------------|


G|--9---14-12-11-12----|-9---14-12-11-9----|-9---14-12-11-9----|-9---14-12-11-9----|-----|
D|------------------12-|----------------12-|----------------12-|----------------12-|-----|
A|---------------------|-------------------|-------------------|-------------------|-----|
E|---------------------|-------------------|-------------------|-------------------|-12--|



**************************

| \ : slide down
| . : staccato

**************************

in regular sequence!
Suggest correction
Give kudos to tab author, rate the tab!
1 2 3 4 5
comments
print report bad tab
guest
You may want to rate the tab now too:
select rating
Wanna post a correction for this tab? Suggest correction