Oops, an error
Loading. Please wait.

Hammer The Hammer Bass Tab

4 views 1 this week
no commentswrite comment
1 2 3 4 5
3 more votes to show rating
add to favorites
launch autoscroll
font size
0
reset
guitar tuner
Autoscroll
slow
fast
+/-
esc
set tempo
stop
Help us to improve Ultimate-Guitar.com Take our survey!
×
Author
Difficulty
novice
[Intro]
G|-------------|------------|------------|------------|----------2-|------------| (x2)
D|-------------|-2---------0|-2----------|-2----------|-2----------|-2----------|
A|-7--\-2---2-3|-----2---2--|-----2---2-3|-----2---2-3|-----2--3---|------------|
E|-------------|------------|------------|------------|------------|------------|

[Verse 1]
G|-------------|------------|------------|------------|----------2-|------------| (x2)
D|-------------|-2---------0|-2----------|-2----------|-2----------|-2----------|
A|-7--\-2---2-3|-----2---2--|-----2---2-3|-----2---2-3|-----2--3---|------------|
E|-------------|------------|------------|------------|------------|------------|

[Chorus]
G|----------------|----------------|----------------|----------------|-----------2-|----------------|
D|-7-7-7----------|-7-7-7----------|-7-7-7----------|-7-7-7----------|-2-----------|-2--------------|
A|-------7-7-7-7-7|-------7-7-7-7-7|-------7-7-7-7-7|-------7-7-7-7-\|----2-2--3---|----------------|
E|----------------|----------------|----------------|----------------|-------------|----------------|

[Interlude]
G|------------|----------------|------------|-----------|------2-|------------| 
D|------------|-2--------------|---------2--|--------2--|--------|-2----------|
A|-7--\-2---2-|-----2---2-/-7--|\-2---2-----|-2---2-----|-2--3---|------------|
E|------------|----------------|------------|-----------|--------|------------|

[Verse 2]
G|------------|----------------|------------|-----------|------2-|------------| (x2)
D|------------|-2--------------|---------2--|--------2--|--------|-2----------|
A|-7--\-2---2-|-----2---2-/-7--|\-2---2-----|-2---2-----|-2--3---|------------|
E|------------|----------------|------------|-----------|--------|------------|

[Chorus]
G|----------------|----------------|----------------|----------------|
D|-7-7-7----------|-7-7-7----------|-7-7-7----------|-7-7-7----------|
A|-------7-7-7-7-7|-------7-7-7-7-7|-------7-7-7-7-7|-------7-7-7-7-\|
E|----------------|----------------|----------------|----------------|

[Instrumental]
G|-----------|----------|------------------| (x2)
D|-2-------2-|-2--------|-2-------2--------|
A|-----4-----|-----2----|-----4------------|
E|-----------|----------|------------------|

G|-------------|
D|-----------7-|
A|-7--7--------|
E|------7--9---|

[Chorus]
G|----------------|----------------|----------------|---------------|
D|-7-7-7----------|-7-7-7----------|-7-7-7----------|-7-7-7---------|
A|-------7-7-7-7-7|-------7-7-7-7-7|-------7-7-7-7-7|-------7-7-7-7-|
E|----------------|----------------|----------------|---------------|

[Interlude]
G|------------|----------------|------------|-----------|------2-|------------| 
D|------------|-2--------------|---------2--|--------2--|--------|-2----------|
A|-7--\-2---2-|-----2---2-/-7--|\-2---2-----|-2---2-----|-2--3---|------------|
E|------------|----------------|------------|-----------|--------|------------|

[Verse 3]
G|------------|----------------|------------|-----------|------2-|------------| (x2)
D|------------|-2--------------|---------2--|--------2--|--------|-2----------|
A|-7--\-2---2-|-----2---2-/-7--|\-2---2-----|-2---2-----|-2--3---|------------|
E|------------|----------------|------------|-----------|--------|------------|

[Chorus]
G|----------------|----------------|----------------|----------------|
D|-7-7-7----------|-7-7-7----------|-7-7-7----------|-7-7-7----------|
A|-------7-7-7-7-7|-------7-7-7-7-7|-------7-7-7-7-7|-------7-7-7-7-7|
E|----------------|----------------|----------------|----------------|

G|----------------|----------------|----------------|---------------|
D|-7-7-7----------|-7-7-7----------|-7-7-7----------|-7-7-7---------|
A|-------7-7-7-7-7|-------7-7-7-7-7|-------7-7-7-7-7|-------7-7-7-7-|
E|----------------|----------------|----------------|---------------|

[Outro]
G|------------|------------|--------------|----------------|
D|-7-5-4------|-7-5-4------|-7-5-4------7-|----------------|
A|-------7----|-------7----|-------7--7---|-7--------------|
E|------------|------------|--------------|----------------|



***********************

| / slide up
| \ slide down

***********************
Suggest correction
Give kudos to tab author, rate the tab!
1 2 3 4 5
comments
print report bad tab
guest
You may want to rate the tab now too:
select rating
Wanna post a correction for this tab? Suggest correction