Oops, an error
Loading. Please wait.

Heaven Says Bass Tab

16 views 6 this week
no commentswrite comment
1 2 3 4 5
3 more votes to show rating
add to favorites
launch autoscroll
font size
0
reset
guitar tuner
Autoscroll
slow
fast
+/-
esc
set tempo
stop
Help us to improve Ultimate-Guitar.com Take our survey!
×
Author
Difficulty
novice
Bass Start - 00:19

[Intro]
G|-----------------------|---------------------------|-----------------------|-----------------------|
D|----10--7--9---9--9-9--|----10--7--9---9--(9-9)-9--|----10--7--9---9--9-9--|----10--7--9---9--9-9--|
A|-----------------------|---------------------------|-----------------------|-----------------------|
E|-7---------------------|-7-------------------------|-7---------------------|-7---------------------|

G|-----------------------|
D|----10--7--9---9--9-9--|
A|-----------------------|
E|-7---------------------|

[Verse 1]
G|-----------------------|-----------------------|-----------------------|---------------------------|
D|----10--7--9---9--9-9--|----10--7--9---9--9-9--|----10--7--9---9--9-9--|----10--7--9---9--(9-9)-9--|
A|-----------------------|-----------------------|-----------------------|---------------------------|
E|-7---------------------|-7---------------------|-7---------------------|-7-------------------------|

G|---------------------------|
D|----10--7--9---9--(9-9)-9--|
A|---------------------------|
E|-7-------------------------|

G|---------------------------|---------------------------|---------------------------|
D|----10--7--9---9--(9-9)-9--|----10--7--9---9--(9-9)-9--|----10--7--9---9--(9-9)-9--|
A|---------------------------|---------------------------|---------------------------|
E|-7-------------------------|-7-------------------------|-7-------------------------|

G|-----------------------|
D|----10--7--9---9--9-9--|
A|-----------------------|
E|-7---------------------|

G|-----------------------|---------------------------|---------------------------|
D|----10--7--9---9--9-9--|----10--7--9---9--(9-9)-9--|----10--7--9---9--(9-9)-9--|
A|-----------------------|---------------------------|---------------------------|
E|-7---------------------|-7-------------------------|-7-------------------------|

G|---------------------------|
D|----10--7--9---9--(9-9)-9--|
A|---------------------------|
E|-7-------------------------|

G|---------------------------|---------------------------|---------------------------|
D|----10--7--9---9--(9-9)-9--|----10--7--9---9--(9-9)-9--|----10--7--9---9--(9-9)-9--|
A|---------------------------|---------------------------|---------------------------|
E|-7-------------------------|-7-------------------------|-7-------------------------|

G|-----------------------|
D|----10--7--9---9--9-9--|
A|-----------------------|
E|-7---------------------|

[Interlude]
G|----------------|-------------|----------------|-------------| (x2)
D|---9---9---9---9|-------------|---9---9---9---9|-------------|
A|-8---8---8---8--|-10---10-----|-8---8---8---8--|-10---10-----|
E|----------------|---------0---|----------------|---------0---|

[Verse 2]
G|----------------|-------------|----------------|-------------| (x2)
D|---9---9---9---9|-------------|---9---9---9---9|-------------|
A|-8---8---8---8--|-10---10-----|-8---8---8---8--|-10---10-----|
E|----------------|---------0---|----------------|---------0---|

G|-------------|----------|-------------|----------|
D|-------------|----------|-------------|----------|
A|-10---10-----|-10-------|-10---10-----|-10-------|
E|---------0---|------0---|---------0---|------0---|

[Interlude]
G|----------------|-------------|----------------|-------------| 
D|---9---9---9---9|-------------|---9---9---9---9|-------------|
A|-8---8---8---8--|-10---10-----|-8---8---8---8--|-10---10-----|
E|----------------|---------0---|----------------|---------0---|

[Verse 3]
G|----------------|-------------|----------------|-------------| (x2)
D|---9---9---9---9|-------------|---9---9---9---9|-------------|
A|-8---8---8---8--|-10---10-----|-8---8---8---8--|-10---10-----|
E|----------------|---------0---|----------------|---------0---|

G|-------------|----------|-------------|----------|
D|-------------|----------|-------------|----------|
A|-10---10-----|-10-------|-10---10-----|-10-------|
E|---------0---|------0---|---------0---|------0---|

[Interlude]
G|----------------|-------------|----------------|-------------| 
D|---9---9---9---9|-------------|---9---9---9---9|-------------|
A|-8---8---8---8--|-10---10-----|-8---8---8---8--|-10---10-----|
E|----------------|---------0---|----------------|---------0---|

[Verse 4]
G|----------------|-------------|----------------|-------------| (x2)
D|---9---9---9---9|-------------|---9---9---9---9|-------------|
A|-8---8---8---8--|-10---10-----|-8---8---8---8--|-10---10-----|
E|----------------|---------0---|----------------|---------0---|

G|-------------|----------|-------------|----------|
D|-------------|----------|-------------|----------|
A|-10---10-----|-10-------|-10---10-----|-10-------|
E|---------0---|------0---|---------0---|------0---|

[Interlude]
G|----------------|-------------|----------------|-------------| 
D|---9---9---9---9|-------------|---9---9---9---9|-------------|
A|-8---8---8---8--|-10---10-----|-8---8---8---8--|-10---10-----|
E|----------------|---------0---|----------------|---------0---|

[Chorus]
G|----------------|-------------|----------------|-------------| 
D|---9---9---9---9|-------------|---9---9---9---9|-------------|
A|-8---8---8---8--|-10---10-----|-8---8---8---8--|-10---10-----|
E|----------------|---------0---|----------------|---------0---|

G|-------------|-------------|-------------|-------------| (x2)
D|-------------|-------------|-------------|-------------|
A|-------------|-10---10-----|-------------|-10---10-----|
E|-------------|---------0---|-------------|---------0---|

[Outro]
G|----------------|-------------|----------------|-------------| (x4)
D|---9---9---9---9|-------------|---9---9---9---9|-------------|
A|-8---8---8---8--|-10---10-----|-8---8---8---8--|-10---10-----|
E|----------------|---------0---|----------------|---------0---|

G|----------------|-------------|----------------|------------|------------|
D|---9---9---9---9|-------------|---9---9---9----|------------|------------|
A|-8---8---8---8--|-10---10-----|-8---8---8---8-/|-10---10----|-10---10----|
E|----------------|---------0---|----------------|------------|------------|

G|----------------|-------------|-----------|-------------|
D|---9---9---9----|----9--9-----|-----------|----9--9-----|
A|-8---8---8---8--|-10----------|-10--------|-10----------|
E|----------------|---------0---|----0--0---|---------0---|

G|-----------|-------------|-----------|------------|
D|-----------|----9--9-----|-----------|----9--9----|
A|-10--------|-10----------|-10--------|-10---------|
E|----0--0---|---------0---|----0--0---|---------0--|



***********************

| / slide up
| ( ) fast

***********************
Suggest correction
Give kudos to tab author, rate the tab!
1 2 3 4 5
comments
print report bad tab
guest
You may want to rate the tab now too:
select rating
Wanna post a correction for this tab? Suggest correction