Oops, an error
Loading. Please wait.

Hold Your Horses Bass Tab

7 views 7 this week
no commentswrite comment
1 2 3 4 5
3 more votes to show rating
add to favorites
launch autoscroll
font size
0
reset
guitar tuner
Autoscroll
slow
fast
+/-
esc
set tempo
stop
Help us to improve Ultimate-Guitar.com Take our survey!
×
Author
Difficulty
novice
Tuning : 

G
D
A
C


[Intro]
G|-6-7--9-----9------9---|-6-7--9-----9------9---|
D|--------7--------7-----|--------7--------7-----|
A|-----------------------|-----------------------|
C|-----------------------|-----------------------|

G|-6-7--9-9---7---6-------7--6-|-----9------9---|
D|--------------------9--------|-7--------7-----|
A|-----------------------------|----------------|
C|-----------------------------|----------------|

[Verse 1]

G|-6-7--9-----9----|-6-7--9-----9----|-6-7--9-9---7---6-------7--6-|-----9------9---| 
D|--------7--------|--------7--------|--------------------9--------|-7--------7-----|
A|-----------------|-----------------|-----------------------------|----------------|
C|-----------------|-----------------|-----------------------------|----------------|

G|-6-7--9-----9----|-6-7--9-----9----|-6-7--9-9---7---6-------7--6-|-----9---------------------| 
D|--------7--------|--------7--------|--------------------9--------|-7--------7-7-7-7-7-7-7-7-7|
A|-----------------|-----------------|-----------------------------|---------------------------|
C|-----------------|-----------------|-----------------------------|---------------------------|

[Chorus, Instrumental]
G|-9-7--6-9-7--|--------------|-----9------------|
D|-------------|--------------|-7--------7-7-7-7-|
A|-------------|--------------|------------------|
C|-------------|-4-2--1-4-2--2|------------------|

G|------------9-9-7-7-6-6------|------------9-9-7-7-6-6------|
D|------------------------9-7--|------------------------9-7--|
A|-----------------------------|-----------------------------|
C|-1-2--4-4-4------------------|-1-2--4-4-4------------------|

G|-6-7--9-9---7---6-------6--7-|-----9------9---| 
D|--------------------9--------|-7--------7-----|
A|-----------------------------|----------------|
C|-----------------------------|----------------|

[Verse 2]
G|-6-7--9-----9----|-6-7--9-----9----|-6-7--9-9---7---6-------7--6-|-----9------9---| 
D|--------7--------|--------7--------|--------------------9--------|-7--------7-----|
A|-----------------|-----------------|-----------------------------|----------------|
C|-----------------|-----------------|-----------------------------|----------------|

G|-6-7--9-----9----|-6-7--9-----9----|-6-7--9-9---7---6-------7--6-|-----9---------------------| 
D|--------7--------|--------7--------|--------------------9--------|-7--------7-7-7-7-7-7-7-7-7|
A|-----------------|-----------------|-----------------------------|---------------------------|
C|-----------------|-----------------|-----------------------------|---------------------------|

[Chorus, Instrumental]
G|-9-7--6-9-7--|-------------|-------------|--------------|-----9------------|
D|-------------|-------------|-------------|--------------|-7--------7-7-7-7-|
A|-------------|-------------|-------------|--------------|------------------|
C|-------------|-4-2--1-4-2--|-4-2--1-4-2--|-4-2--1-4-2--2|------------------|

G|------------9-9-7-7-6-6------|------------9-9-7-7-6-6------|
D|------------------------9-7--|------------------------9-7--|
A|-----------------------------|-----------------------------|
C|-1-2--4-4-4------------------|-1-2--4-4-4------------------|

G|-6-7--9-9---7---6-------6--7-|-----9------------| 
D|--------------------9--------|-7--------7-7-7-7-|
A|-----------------------------|------------------|
C|-----------------------------|------------------|

[Outro]
G|------------9-9-7-7-6-6------|------------9-9-7-7-6-6------|
D|------------------------9-7--|------------------------9-7--|
A|-----------------------------|-----------------------------|
C|-1-2--4-4-4------------------|-1-2--4-4-4------------------|

G|-6-7--9-9---7---6-------7--6-|------------------| 
D|--------------------9--------|-7----------------|
A|-----------------------------|------------------|
C|-----------------------------|------------------|
Suggest correction
Give kudos to tab author, rate the tab!
1 2 3 4 5
comments
print report bad tab
guest
You may want to rate the tab now too:
select rating
Wanna post a correction for this tab? Suggest correction