Oops, an error
Loading. Please wait.

I Just Get Caught Out Bass Tab

31 views 6 this week
no commentswrite comment
1 2 3 4 5
3 more votes to show rating
add to favorites
launch autoscroll
font size
0
reset
guitar tuner
Autoscroll
slow
fast
+/-
esc
set tempo
stop
Help us to improve Ultimate-Guitar.com Take our survey!
×
Author
Difficulty
novice
[Intro]

G|----------------------------|----------------------------|
D|---------------------4-4-2--|----------------------4--2--|
A|---------------2------------|----------------2-----------|
E|--5-5--5-5-3-5--------------|--5-5-5-5-5-3-5-------------|


G|-----------------------------|----------------------------|
D|----------------------4-4-2--|----------------------4--2--|
A|----------------2------------|----------------2-----------|
E|--5-5-5-5-5-3-5--------------|--5-5-5-5-5-3-5-------------|


[Verse 1]

G|-----------------------------|----------------------------|
D|----------------------4-4-2--|----------------------4--2--|
A|----------------2------------|----------------2-----------|
E|--5-5-5-5-5-3-5--------------|--5-5-5-5-5-3-5-------------|


G|-----------------------------|---------------------------|
D|----------------------4-4-2--|---------------------------|
A|----------------2------------|---------------------2--3--|
E|--5-5-5-5-5-3-5--------------|--5-5-5-5-5-2--3-----------|


[Chorus]

G|-----------|-----------4--|--2---2-2--|-2-4--2-4--2----| (x2)
D|-----------|-----2--4-----|-----------|-------------4--|
A|--5---5-5--|--5-----------|-----------|----------------|
E|-----------|--------------|-----------|----------------|


[Verse 2]

G|-----------------------------|----------------------------|
D|----------------------4-4-2--|----------------------4--2--|
A|----------------2------------|----------------2-----------|
E|--5-5-5-5-5-3-5--------------|--5-5-5-5-5-3-5-------------|


G|-----------------------------|---------------------------|
D|----------------------4-4-2--|---------------------------|
A|----------------2------------|---------------------2--3--|
E|--5-5-5-5-5-3-5--------------|--5-5-5-5-5-2--3-----------|


[Chorus]

G|-----------|-----------4--|--2---2-2--|-2-4--2-4--2----| (x2)
D|-----------|-----2--4-----|-----------|-------------4--|
A|--5---5-5--|--5-----------|-----------|----------------|
E|-----------|--------------|-----------|----------------|


[Bridge]

G|----------------|----------------|----------------|----------------|
D|----------------|----------------|----------------|----------------|
A|--2-2--2--------|--2-2--2--------|--0-0--0--------|--0-0--0--------|
E|----------------|----------------|----------------|----------------|


G|----------------|----------------|----------------|---------------|
D|----------------|----------------|----------------|---------------|
A|--2-2--2--------|--2-2--2--------|----------------|---------2--3--|
E|----------------|----------------|--3-3--3--------|--3-3--3-------|


[Chorus]

G|-----------|-----------4--|--2---2-2--|-2-4--2-4--2----| (x2)
D|-----------|-----2--4-----|-----------|-------------4--|
A|--5---5-5--|--5-----------|-----------|----------------|
E|-----------|--------------|-----------|----------------|


[Bridge]

G|----------------|----------------|----------------|----------------|
D|----------------|----------------|----------------|----------------|
A|--2-2--2--------|--2-2--2--------|--0-0--0--------|--0-0--0--------|
E|----------------|----------------|----------------|----------------|


G|----------------|----------------|----------------|---------------|
D|----------------|----------------|----------------|---------------|
A|--2-2--2--------|--2-2--2--------|----------------|---------2--3--|
E|----------------|----------------|--3-3--3--------|--3-3--3-------|


[Outro]

G|-----------|-----------4--|--2---2-2--|-2-4--2-4--2----| (x4)
D|-----------|-----2--4-----|-----------|-------------4--|
A|--5---5-5--|--5-----------|-----------|----------------|
E|-----------|--------------|-----------|----------------|


G|----------------|
D|----------------|
A|--5-------------|
E|----------------|



****************************

in regular sequence!

****************************
Suggest correction
Give kudos to tab author, rate the tab!
1 2 3 4 5
comments
print report bad tab
guest
You may want to rate the tab now too:
select rating
Wanna post a correction for this tab? Suggest correction