Oops, an error
Loading. Please wait.

On My Block Bass Tab

40 views 3 this week
no commentswrite comment
1 2 3 4 5
3 more votes to show rating
add to favorites
launch autoscroll
font size
0
reset
guitar tuner
Autoscroll
slow
fast
+/-
esc
set tempo
stop
Help us to improve Ultimate-Guitar.com Take our survey!
×
Author
Difficulty
novice
[Intro]

G|----------------|------------------|
D|----------------|------------------|
A|--------r-------|---------r--------|
E|----------------|------------------|


G|--9----------|--9----------|--9---7-6-7-9--| (x4)
D|------6-7-6--|------6-7-6--|---------------|
A|-------------|-------------|---------------|
E|-------------|-------------|---------------|


[Verse 1]

G|--9----------|--9-----------|-9---7-6-7-9--| (x2)
D|------6-7-6--|------6-7-6-9-|--------------|
A|-------------|--------------|--------------|
E|-------------|--------------|--------------|


G|--9----------|--9----------|--9---7-6-7-9--| 
D|------6-7-6--|------6-7-6--|---------------|
A|-------------|-------------|---------------|
E|-------------|-------------|---------------|


[Chorus]

G|--7----6----9---|--7----6--------|
D|----------------|----------------|
A|----------------|----------------|
E|----------------|----------------|


[Verse 2]

G|--9----------|--9----------|--9---7-6-7-9--| 
D|------6-7-6--|------6-7-6--|---------------|
A|-------------|-------------|---------------|
E|-------------|-------------|---------------|


G|--9----------|--9------------|--9---7-6-7-9--| 
D|------6-7-6--|------6-7-6-9--|---------------|
A|-------------|---------------|---------------|
E|-------------|---------------|---------------|


G|---------------|---------------|--9---7-6-7-9--|
D|------7-6-7-6--|------7-6-7-6--|---------------|
A|--7------------|--7------------|---------------|
E|---------------|---------------|---------------|


[Chorus]

G|--9-11--13------|--11-13--14-----|-----11------9--|
D|----------------|----------------|--12------11----|
A|----------------|----------------|----------------|
E|----------------|----------------|----------------|


G|--9-11--13------|--11-13--14-----|
D|----------------|----------------|
A|----------------|----------------|
E|----------------|----------------|


G|--------------|--------------|------9-9-7-6--| (x2)
D|--7----6-7-6--|--9----6-7-6--|--7------------|
A|--------------|--------------|---------------|
E|--------------|--------------|---------------|


G|--------------|--------------|--------------|
D|--7----6-7-6--|--9----6-7-6--|--7-----------|
A|--------------|--------------|--------------|
E|--------------|--------------|--------------|


[Interlude]

G|--9----------|--9----------|--9---7-6-7-9--| (x2)
D|------6-7-6--|------6-7-6--|---------------|
A|-------------|-------------|---------------|
E|-------------|-------------|---------------|


[Verse 3]

G|--9----------|--9------------|--9---7-6-7-9--| (x2)
D|------6-7-6--|------6-7-6-9--|---------------|
A|-------------|---------------|---------------|
E|-------------|---------------|---------------|


G|--9----------|--9----------|--9---7-6-7-9--| 
D|------6-7-6--|------6-7-6--|---------------|
A|-------------|-------------|---------------|
E|-------------|-------------|---------------|


[Chorus]

G|--9-11--13------|--11-13--14-----|-----11------9--|
D|----------------|----------------|--12------11----|
A|----------------|----------------|----------------|
E|----------------|----------------|----------------|


G|--9-11--13------|--11-13--14-----|
D|----------------|----------------|
A|----------------|----------------|
E|----------------|----------------|


G|--------------|--------------|------9-9-7-6--| (x2)
D|--7----6-7-6--|--9----6-7-6--|--7------------|
A|--------------|--------------|---------------|
E|--------------|--------------|---------------|


G|--------------|--------------|--------------|
D|--7----6-7-6--|--9----6-7-6--|--7-----------|
A|--------------|--------------|--------------|
E|--------------|--------------|--------------|


[Interlude]

G|---------------|---------------|--9---7-6-7-9--|
D|------7-6-7-6--|------7-6-7-6--|---------------|
A|--7------------|--7------------|---------------|
E|---------------|---------------|---------------|


[Verse 4]

G|---------------|---------------|--9---7-6-7-9--| (x3)
D|------7-6-7-6--|------7-6-7-6--|---------------|
A|--7------------|--7------------|---------------|
E|---------------|---------------|---------------|


[Chorus]

G|--9-11--13------|--11-13--14-----|-----11------9--|
D|----------------|----------------|--12------11----|
A|----------------|----------------|----------------|
E|----------------|----------------|----------------|


G|--9-11--13------|--11-13--14-----|
D|----------------|----------------|
A|----------------|----------------|
E|----------------|----------------|


G|--------------|--------------|------9-9-7-6--| (x2)
D|--7----6-7-6--|--9----6-7-6--|--7------------|
A|--------------|--------------|---------------|
E|--------------|--------------|---------------|


G|--------------|--------------|--------------|
D|--7----6-7-6--|--9----6-7-6--|--7-----------|
A|--------------|--------------|--------------|
E|--------------|--------------|--------------|


[Chorus]

G|---------13-----|---------14-----|-----11------9--|
D|--12-14---------|--12-14---------|--12------11----|
A|----------------|----------------|----------------|
E|----------------|----------------|----------------|


G|---------13-----|---------14-----|
D|--12-14---------|--12-14---------|
A|----------------|----------------|
E|----------------|----------------|


G|--------------|--------------|------9-9-7-6--| (x2)
D|--7----6-7-6--|--9----6-7-6--|--7------------|
A|--------------|--------------|---------------|
E|--------------|--------------|---------------|


G|--------------|--------------|--------------|
D|--7----6-7-6--|--9----6-7-6--|--7-----------|
A|--------------|--------------|--------------|
E|--------------|--------------|--------------|


[Outro] (repeat until the end)

G|--9-------6--|--9-6-----6--|--9-------------|
D|----6--7-----|-------9-----|----6--7--------|
A|-------------|-------------|----------------|
E|-------------|-------------|----------------|



***********************

| r : rest

***********************

in regular sequence!
Suggest correction
Give kudos to tab author, rate the tab!
1 2 3 4 5
comments
print report bad tab
guest
You may want to rate the tab now too:
select rating
Wanna post a correction for this tab? Suggest correction