Oops, an error
Loading. Please wait.

Right Here Bass Tab

25 views 3 this week
no commentswrite comment
1 2 3 4 5
3 more votes to show rating
add to favorites
launch autoscroll
font size
0
reset
guitar tuner
Autoscroll
slow
fast
+/-
esc
set tempo
stop
Help us to improve Ultimate-Guitar.com Take our survey!
×
Author
Difficulty
novice
[Intro]
G|-----------|-----------|-----------|--------------| (x2)
D|-----------|-----------|-----------|--------------|
A|--5---5-5--|--5---5-5--|-----------|--------------|
E|-----------|-----------|--3---3-3--|--5---5-5--5--|

[Verse 1]
G|-----------|-----------|-----------|--------------| (x4)
D|-----------|-----------|-----------|--------------|
A|--5---5-5--|--5---5-5--|-----------|--------------|
E|-----------|-----------|--3---3-3--|--5---5-5--5--|

[Pre-Chorus]
G|------------|------------|------------|------------|------------|--------------|
D|------------|------------|------------|------------|------------|--------------|
A|------------|------------|------------|------------|------------|--------------|
E|--3----3-3--|--5----5-5--|--3----3-3--|--5----5-5--|--3----3-3--|--5--5--5--5--|

[Chorus]
G|-------------|-------------|-------------|--------------|
D|-------------|-------------|-------------|--------------|
A|--5---5-5-5--|--5---5-5-5--|-------------|--------------|
E|-------------|-------------|--3---3-3-3--|--5--5--5--5--|

G|-------------|-------------|-------------|---------------|
D|-------------|-------------|-------------|---------------|
A|--5---5-5-5--|--5---5-5-5--|-------------|---------------|
E|-------------|-------------|--3---3-3-3--|--5--5--5-5-5--|

[Intro repeat]
G|-----------|-----------|-----------|--------------| 
D|-----------|-----------|-----------|--------------|
A|--5---5-5--|--5---5-5--|-----------|--------------|
E|-----------|-----------|--3---3-3--|--5---5-5--5--|

[Verse 2]
G|-----------|-----------|-----------|--------------| (x4)
D|-----------|-----------|-----------|--------------|
A|--5---5-5--|--5---5-5--|-----------|--------------|
E|-----------|-----------|--3---3-3--|--5---5-5--5--|

[Pre-Chorus]
G|------------|------------|------------|------------|------------|--------------|
D|------------|------------|------------|------------|------------|--------------|
A|------------|------------|------------|------------|------------|--------------|
E|--3----3-3--|--5----5-5--|--3----3-3--|--5----5-5--|--3----3-3--|--5--5--5--5--|

[Chorus]
G|-------------|-------------|-------------|--------------|
D|-------------|-------------|-------------|--------------|
A|--5---5-5-5--|--5---5-5-5--|-------------|--------------|
E|-------------|-------------|--3---3-3-3--|--5--5--5--5--|

G|-------------|-------------|-------------|---------------|
D|-------------|-------------|-------------|---------------|
A|--5---5-5-5--|--5---5-5-5--|-------------|---------------|
E|-------------|-------------|--3---3-3-3--|--5--5--5-5-5--|

[Intro repeat]
G|-----------|-----------|-----------|--------------| (x2) 
D|-----------|-----------|-----------|--------------|
A|--5---5-5--|--5---5-5--|-----------|--------------|
E|-----------|-----------|--3---3-3--|--5---5-5--5--|

[Verse 3]
G|-----------|-----------|-----------|--------------| (x4)
D|-----------|-----------|-----------|--------------|
A|--5---5-5--|--5---5-5--|-----------|--------------|
E|-----------|-----------|--3---3-3--|--5---5-5--5--|

[Pre-Chorus]
G|------------|------------|------------|------------|------------|--------------|
D|------------|------------|------------|------------|------------|--------------|
A|------------|------------|------------|------------|------------|--------------|
E|--3----3-3--|--5----5-5--|--3----3-3--|--5----5-5--|--3----3-3--|--5--5--5--5--|

[Chorus]
G|-------------|-------------|-------------|--------------|
D|-------------|-------------|-------------|--------------|
A|--5---5-5-5--|--5---5-5-5--|-------------|--------------|
E|-------------|-------------|--3---3-3-3--|--5--5--5--5--|

G|-------------|-------------|-------------|---------------|
D|-------------|-------------|-------------|---------------|
A|--5---5-5-5--|--5---5-5-5--|-------------|---------------|
E|-------------|-------------|--3---3-3-3--|--5--5--5-5-5--|

G|-------------|-------------|-------------|--------------|
D|-------------|-------------|-------------|--------------|
A|--5---5-5-5--|--5---5-5-5--|-------------|--------------|
E|-------------|-------------|--3---3-3-3--|--5--5--5--5--|

G|-------------|-------------|-------------|---------------|
D|-------------|-------------|-------------|---------------|
A|--5---5-5-5--|--5---5-5-5--|-------------|---------------|
E|-------------|-------------|--3---3-3-3--|--5--5--5-5-5--|

G|-------------|-------------|-------------|--------------|
D|-------------|-------------|-------------|--------------|
A|--5---5-5-5--|--5---5-5-5--|-------------|--------------|
E|-------------|-------------|--3---3-3-3--|--5--5--5--5--|

[Outro]
G|-------------|-------------|-------------|---------------|
D|-------------|-------------|-------------|---------------|
A|--5---5-5-5--|--5---5-5-5--|-------------|---------------|
E|-------------|-------------|--3---3-3-3--|--5--5--5-5-5--|

                                               (fade out)
G|-------------|-------------|-------------|--------------|
D|-------------|-------------|-------------|--------------|
A|--5---5-5-5--|--5---5-5-5--|-------------|--------------|
E|-------------|-------------|--3---3-3-3--|--5--5--5--5--|


*************************

in regular sequence!

*************************
Suggest correction
Give kudos to tab author, rate the tab!
1 2 3 4 5
comments
print report bad tab
guest
You may want to rate the tab now too:
select rating
Wanna post a correction for this tab? Suggest correction