Oops, an error
Loading. Please wait.

That Way Bass Tab

34 views 1 this week
no commentswrite comment
1 2 3 4 5
3 more votes to show rating
add to favorites
launch autoscroll
font size
0
reset
guitar tuner
Autoscroll
slow
fast
+/-
esc
set tempo
stop
Help us to improve Ultimate-Guitar.com Take our survey!
×
Author
Difficulty
novice
Bass Start - 00:12


[Intro]

G|------------------|
D|--12---10--10-10--|
A|------------------|
E|------------------|


G|--------------|------------|------------|----------|
D|--12-10-9-----|--10-9-7----|--9-7-------|----------|
A|----------10--|---------9--|------10-7--|----------|
E|--------------|------------|------------|--10---8--|


G|--------------|------------|------------|----------|
D|--12-10-9-----|--10-9-7----|--9-7-------|----------|
A|----------10--|---------9--|------10-7--|----------|
E|--------------|------------|------------|--10---8--|


[Verse 1]

G|-----------|-----------|-----------|----------| (x2)
D|----5-7-5--|----5-7-5--|----5-7-5--|--7-------|
A|--7--------|--7--------|--7--------|----9--7--|
E|-----------|-----------|-----------|----------|


[Chorus]

G|-----------|-----------|-----------|----------| 
D|----5-7-5--|----5-7-5--|----5-7-5--|--7-------|
A|--7--------|--7--------|--7--------|----9--7--|
E|-----------|-----------|-----------|----------|


G|-----------|-----------|-----------|----------| 
D|----5-7-5--|----5-7-5--|----5-7-5--|--7-------|
A|--7--------|--7--------|--7--------|----9--7--|
E|-----------|-----------|-----------|----------|


[Intro repeat]

G|--------------|------------|------------|----------| (x2)
D|--12-10-9-----|--10-9-7----|--9-7-------|----------|
A|----------10--|---------9--|------10-7--|----------|
E|--------------|------------|------------|--10---8--|


[Verse 2]

G|-----------|-----------|-----------|----------| (x2)
D|----5-7-5--|----5-7-5--|----5-7-5--|--7-------|
A|--7--------|--7--------|--7--------|----9--7--|
E|-----------|-----------|-----------|----------|


[Chorus]

G|-----------|-----------|-----------|----------| 
D|----5-7-5--|----5-7-5--|----5-7-5--|--7-------|
A|--7--------|--7--------|--7--------|----9--7--|
E|-----------|-----------|-----------|----------|

G|-----------|-----------|-----------|----------| 
D|----5-7-5--|----5-7-5--|----5-7-5--|--7-------|
A|--7--------|--7--------|--7--------|----9--7--|
E|-----------|-----------|-----------|----------|


[Instrumental]

G|--------------|------------|------------|----------|
D|--12-10-9-----|--10-9-7----|--9-7-------|----------|
A|----------10--|---------9--|------10-7--|----------|
E|--------------|------------|------------|--10---8--|


G|--------------|------------|------------|----------|
D|--12-10-9-----|--10-9-7----|--9-7-------|----------|
A|----------10--|---------9--|------10-7--|----------|
E|--------------|------------|------------|--10---8--|


[Verse 3]

G|-----------|-----------|-----------|----------| (x2)
D|----5-7-5--|----5-7-5--|----5-7-5--|--7-------|
A|--7--------|--7--------|--7--------|----9--7--|
E|-----------|-----------|-----------|----------|


[Chorus]

G|-----------|-----------|-----------|----------| (x6)
D|----5-7-5--|----5-7-5--|----5-7-5--|--7-------|
A|--7--------|--7--------|--7--------|----9--7--|
E|-----------|-----------|-----------|----------|


[Instrumental]

G|-----------------|---------------|----------------|----------| (x2)
D|--12-10-9-----9--|--10-9-7----7--|--9-7-----------|----------|
A|----------10-----|---------9-----|------10-7--10--|----------|
E|-----------------|---------------|----------------|--10---8--|


[Outro]

G|---------------------|--------------------|-----------------|----------| (x4)
D|--12-12-12-12--10-9--|--10-10-10-10--9-7--|--9-9-9-9--7-----|----------|
A|---------------------|--------------------|-------------10--|----------|
E|---------------------|--------------------|-----------------|--10---8--|


G|-----------------|---------------|------------------|----------| 
D|--12-10-9-----9--|--10-9-7----7--|--9-7-------------|----------|
A|----------10-----|---------9-----|------10-7--10-7--|----------|
E|-----------------|---------------|------------------|--10---8--|


G|---------7--|---------7--|---------7--|----------| (x3)
D|-----7-9----|-----7-9----|-----7-9----|----------|
A|--10--------|--10--------|--10--------|----------|
E|------------|------------|------------|--10---8--|


G|---------------------|--------------------|-----------------|----------| 
D|--12-12-12-12--10-9--|--10-10-10-10--9-7--|--9-9-9-9--7-----|----------|
A|---------------------|--------------------|-------------10--|----------|
E|---------------------|--------------------|-----------------|--10---8--|


                                                               (fade out)
G|---------------------|--------------------|-----------------|----------| 
D|--12-12-12-12--10-9--|--10-10-10-10--9-7--|--9-9-9-9--7-----|----------|
A|---------------------|--------------------|-------------10--|----------|
E|---------------------|--------------------|-----------------|--10---8--|



*************************

in regular sequence!

*************************
Suggest correction
Give kudos to tab author, rate the tab!
1 2 3 4 5
comments
print report bad tab
guest
You may want to rate the tab now too:
select rating
Wanna post a correction for this tab? Suggest correction