Oops, an error
Loading. Please wait.

The House That Jack Kerouac Built Bass Tab

31 views 1 this week
no commentswrite comment
1 2 3 4 5
3 more votes to show rating
add to favorites
launch autoscroll
font size
0
reset
guitar tuner
Autoscroll
slow
fast
+/-
esc
set tempo
stop
Help us to improve Ultimate-Guitar.com Take our survey!
×
Author
Difficulty
novice
[Intro]

G|----------------|----------------|----------------|----------------|
D|----------------|----------------|----------------|----------------|
A|--1--1-1-1------|--1--1-1-1------|--3--3-3-3------|--3--3-3-3------|
E|----------------|----------------|----------------|----------------|


G|----------------|----------------|----------------|---------0-------|
D|----------------|----------------|--3--3-3-3------|--3--3-3---3-1-0-|
A|--1--1-1-1------|--1--1-1-1------|----------------|-----------------|
E|----------------|----------------|----------------|-----------------|


[Verse 1]

G|---------------|----------------|----------------|----------------|
D|---------------|----------------|----------------|----------------|
A|-1--1-1-1------|--1--1-1-1------|--3--3-3-3------|--3--3-3-3------|
E|---------------|----------------|----------------|----------------|


G|----------------|----------------|----------------|---------0---0---|
D|----------------|----------------|--3--3-3-3------|--3--3-3---3---1-|
A|--1--1-1-1------|--1--1-1-1------|----------------|-----------------|
E|----------------|----------------|----------------|-----------------|


G|---------------|----------------|----------------|----------------|
D|---------------|----------------|----------------|----------------|
A|-1--1-1-1------|--1--1-1-1------|--3--3-3-3------|--3--3-3-3------|
E|---------------|----------------|----------------|----------------|


G|----------------|----------------|----------------|---------0---0---|
D|----------------|----------------|--3--3-3-3------|--3--3-3---3---1-|
A|--1--1-1-1------|--1--1-1-1------|----------------|-----------------|
E|----------------|----------------|----------------|-----------------|


[Pre-Chorus]

G|---------|--------------|----------|--------------|----------------|----------------|
D|---------|--------------|----------|--------------|--3-3-3--3-3-3--|----------------|
A|-3----3--|--3----3-1-3--|--4----4--|--4----4-3-4--|----------------|--3-3-3--3-3-3--|
E|---------|--------------|----------|--------------|----------------|----------------|


G|----------------|------------------|
D|----------------|--1-1-1-1-1-1-1-1-|
A|--4-4-4--4-4-4--|------------------|
E|----------------|------------------|


[Chorus]

G|---------5-3-----|---------3-------|---------5-3-----|---------3-------| (x2)
D|-3-3-3-3-----5---|-----------6-3---|-3-3-3-3-----5---|-----------6-3---|
A|---------------6-|---6-6-6-------6-|---------------6-|---6-6-6-------6-|
E|-----------------|-----------------|-----------------|-----------------|


[Verse 2]

G|---------------|----------------|----------------|----------------|
D|---------------|----------------|----------------|----------------|
A|-1--1-1-1------|--1--1-1-1------|--3--3-3-3------|--3--3-3-3------|
E|---------------|----------------|----------------|----------------|


G|----------------|----------------|----------------|---------0---0---|
D|----------------|----------------|--3--3-3-3------|--3--3-3---3---1-|
A|--1--1-1-1------|--1--1-1-1------|----------------|-----------------|
E|----------------|----------------|----------------|-----------------|


G|---------------|----------------|----------------|----------------|
D|---------------|----------------|----------------|----------------|
A|-1--1-1-1------|--1--1-1-1------|--3--3-3-3------|--3--3-3-3------|
E|---------------|----------------|----------------|----------------|


G|----------------|----------------|----------------|---------0---0---|
D|----------------|----------------|--3--3-3-3------|--3--3-3---3---1-|
A|--1--1-1-1------|--1--1-1-1------|----------------|-----------------|
E|----------------|----------------|----------------|-----------------|


[Pre-Chorus]

G|---------|--------------|----------|--------------|----------------|----------------|
D|---------|--------------|----------|--------------|--3-3-3--3-3-3--|----------------|
A|-3----3--|--3----3-1-3--|--4----4--|--4----4-3-4--|----------------|--3-3-3--3-3-3--|
E|---------|--------------|----------|--------------|----------------|----------------|


G|----------------|------------------|
D|----------------|--1-1-1-1-1-1-1-1-|
A|--4-4-4--4-4-4--|------------------|
E|----------------|------------------|


[Chorus]

G|---------5-3-----|---------3-------|---------5-3-----|---------3-------| (x2)
D|-3-3-3-3-----5---|-----------6-3---|-3-3-3-3-----5---|-----------6-3---|
A|---------------6-|---6-6-6-------6-|---------------6-|---6-6-6-------6-|
E|-----------------|-----------------|-----------------|-----------------|


[Verse 3]

G|---------------|----------------|----------------|----------------|
D|---------------|----------------|----------------|----------------|
A|-1--1-1-1------|--1--1-1-1------|--3--3-3-3------|--3--3-3-3------|
E|---------------|----------------|----------------|----------------|


G|----------------|----------------|----------------|---------0---0---|
D|----------------|----------------|--3--3-3-3------|--3--3-3---3---1-|
A|--1--1-1-1------|--1--1-1-1------|----------------|-----------------|
E|----------------|----------------|----------------|-----------------|


G|---------------|----------------|----------------|----------------|
D|---------------|----------------|----------------|----------------|
A|-1--1-1-1------|--1--1-1-1------|--3--3-3-3------|--3--3-3-3------|
E|---------------|----------------|----------------|----------------|


G|----------------|----------------|----------------|---------0---0---|
D|----------------|----------------|--3--3-3-3------|--3--3-3---3---1-|
A|--1--1-1-1------|--1--1-1-1------|----------------|-----------------|
E|----------------|----------------|----------------|-----------------|


[Pre-Chorus]

G|---------|--------------|----------|--------------|----------------|----------------|
D|---------|--------------|----------|--------------|--3-3-3--3-3-3--|----------------|
A|-3----3--|--3----3-1-3--|--4----4--|--4----4-3-4--|----------------|--3-3-3--3-3-3--|
E|---------|--------------|----------|--------------|----------------|----------------|


G|----------------|------------------|
D|----------------|--1-1-1-1-1-1-1-1-|
A|--4-4-4--4-4-4--|------------------|
E|----------------|------------------|


[Chorus]

G|---------5-3-----|---------3-------|---------5-3-----|---------3-------| 
D|-3-3-3-3-----5---|-----------6-3---|-3-3-3-3-----5---|-----------6-3---|
A|---------------6-|---6-6-6-------6-|---------------6-|---6-6-6-------6-|
E|-----------------|-----------------|-----------------|-----------------|


G|---------5-3-----|---------3-------|---------5-3-----|-----------------| 
D|-3-3-3-3-----5---|-----------6-3---|-3-3-3-3-----5---|---------/8------|
A|---------------6-|---6-6-6-------6-|---------------6-|---6-6-6---------|
E|-----------------|-----------------|-----------------|-----------------|


[Instrumental]

G|----------------|----------------|----------------|---------------|
D|----------------|----------------|----------------|---------------|
A|--------r-------|--------r-------|--------r-------|---------------|
E|----------------|----------------|----------------|----------13-\-|


G|----------------|----------------|----------------|----------------|
D|----------------|----------------|----------------|----------------|
A|----------------|--------r-------|----------------|--------r-------|
E|-6--------------|----------------|--1-------------|----------------|


G|----------------|----------------|----------------|----------------|
D|----------------|----------------|----------------|----------------|
A|----------------|--------r-------|----------------|--------r-------|
E|--6-------------|----------------|--8-------------|----------------|


G|----------------|----------------|----------------|----------------|
D|----------------|----------------|----------------|----------------|
A|----------------|--------r-------|----------------|--------r-------|
E|--6-------------|----------------|--1-------------|----------------|


G|----------|--------------|----------|---------------|
D|----------|--------------|----------|-------1---1---|
A|--1----1--|--1----1-1-1--|--3----3--|--3------3---3-|
E|----------|--------------|----------|---------------|


G|----------|---------------|--------------|--0---0---|
D|----------|---------------|------3----3--|----3---3-|
A|--1----1--|--1----3-1-3-1-|--------------|----------|
E|----------|---------------|-1------------|----------|


[Outro] (repeat until the end)

G|----------------|----------------|-----------------|----------------| 
D|----------------|----------------|---------0---0---|--------0---0---|
A|-1--1-1-3-1-3-1-|-1--1-1-3-1-3-1-|--3--3-3---3---3-|-3--3-3---3---3-|
E|----------------|----------------|-----------------|----------------|


G|----------------|----------------|--------0---0---|--------0-------| 
D|----------------|----------------|----3-3---3---3-|-3--3-3---3-0---|
A|-1--1-1-3-1-3-1-|-1--1-1-3-1-3-1-|----------------|--------------3-|
E|----------------|----------------|-1--------------|----------------|



************************

| / : slide up
| \ : slide down
| r : rest

************************

in regular sequence!
Suggest correction
Give kudos to tab author, rate the tab!
1 2 3 4 5
comments
print report bad tab
guest
You may want to rate the tab now too:
select rating
Wanna post a correction for this tab? Suggest correction