Oops, an error
Loading. Please wait.

The Wrong Road Bass Tab

13 views 1 this week
no commentswrite comment
1 2 3 4 5
3 more votes to show rating
add to favorites
launch autoscroll
font size
0
reset
guitar tuner
Autoscroll
slow
fast
+/-
esc
set tempo
stop
Help us to improve Ultimate-Guitar.com Take our survey!
×
Author
Difficulty
novice
[Intro]

G|-------------------|-------------------|-------------------|-------------------|
D|--3----------------|--3----------------|--3----------------|--3----------------|
A|----------5---5-6--|----------5---5-6--|----------5---5-6--|----------5---5-6--|
E|------4------------|------4------------|------4------------|------4------------|


[Verse 1]

G|-------------------|-------------------|-------------------|--------------------|
D|--3----------------|--3----------------|--3----------------|--3-----------------|
A|----------5---5-6--|----------5---5-6--|----------5---5-6--|----------5---5-----|
E|------4------------|------4------------|------4------------|------4---------8-6-|


[Chorus]

G|-------------|-------------|-------------|-------------|
D|-------------|-------------|-------------|-------------|
A|-6-6-6-6-6-6-|-6-6-6-6-6-6-|-6-6-6-6-6-6-|-6-6-6-6-6-6-|
E|-------------|-------------|-------------|-------------|


G|-------------|-------------|-------------|-------------|--------|
D|-------------|-------------|-------------|-------------|--------|
A|-6-6-6-6-6-6-|-6-6-6-6-6-6-|-5-5-5-5-5-5-|-3-3-3-3-----|--5-6-6-|
E|-------------|-------------|-------------|-------------|--------|


[Verse 2]

G|------------------|-------------------|-------------------|--------------------|
D|-3----------------|--3----------------|--3----------------|--3-----------------|
A|---------5---5-6--|----------5---5-6--|----------5---5-6--|----------5---5-----|
E|-----4------------|------4------------|------4------------|------4---------8-6-|


[Chorus]

G|-------------|-------------|-------------|-------------|
D|-------------|-------------|-------------|-------------|
A|-6-6-6-6-6-6-|-6-6-6-6-6-6-|-6-6-6-6-6-6-|-6-6-6-6-6-6-|
E|-------------|-------------|-------------|-------------|


G|-------------|-------------|-------------|-------------|--------|
D|-------------|-------------|-------------|-------------|--------|
A|-6-6-6-6-6-6-|-6-6-6-6-6-6-|-5-5-5-5-5-5-|-3-3-3-3-----|--5-6-6-|
E|-------------|-------------|-------------|-------------|--------|


[Verse 3]

G|------------------|-------------------|-------------------|--------------------|
D|-3----------------|--3----------------|--3----------------|--3-----------------|
A|---------5---5-6--|----------5---5-6--|----------5---5-6--|----------5---5-----|
E|-----4------------|------4------------|------4------------|------4---------8-6-|


[Chorus]

G|-------------|-------------|-------------|-------------|
D|-------------|-------------|-------------|-------------|
A|-6-6-6-6-6-6-|-6-6-6-6-6-6-|-6-6-6-6-6-6-|-6-6-6-6-6-6-|
E|-------------|-------------|-------------|-------------|


G|-------------|-------------|-------------|-------------|--------|
D|-------------|-------------|-------------|-------------|--------|
A|-6-6-6-6-6-6-|-6-6-6-6-6-6-|-5-5-5-5-5-5-|-3-3-3-3-----|--5-6-6-|
E|-------------|-------------|-------------|-------------|--------|


[Instrumental]

G|------------------|-------------------|-------------------|--------------------|
D|-3----------------|--3----------------|--3----------------|--3-----------------|
A|---------5---5-6--|----------5---5-6--|----------5---5-6--|----------5---5-----|
E|-----4------------|------4------------|------4------------|------4---------8-6-|


G|-------------|-------------|-------------|-------------|
D|-------------|-------------|-------------|-------------|
A|-6-6-6-6-6-6-|-6-6-6-6-6-6-|-6-6-6-6-6-6-|-6-6-6-6-6-6-|
E|-------------|-------------|-------------|-------------|


G|-------------|-------------|-------------|-------------|--------|
D|-------------|-------------|-------------|-------------|--------|
A|-6-6-6-6-6-6-|-6-6-6-6-6-6-|-5-5-5-5-5-5-|-3-3-3-3-----|--5-6-6-|
E|-------------|-------------|-------------|-------------|--------|


[Verse 4]

G|------------------|-------------------|-------------------|--------------------|
D|-3----------------|--3----------------|--3----------------|--3-----------------|
A|---------5---5-6--|----------5---5-6--|----------5---5-6--|----------5---5-----|
E|-----4------------|------4------------|------4------------|------4---------8-6-|


[Chorus]

G|-------------|-------------|-------------|-------------|
D|-------------|-------------|-------------|-------------|
A|-6-6-6-6-6-6-|-6-6-6-6-6-6-|-6-6-6-6-6-6-|-6-6-6-6-6-6-|
E|-------------|-------------|-------------|-------------|


G|-------------|-------------|-------------|-------------|--------|
D|-------------|-------------|-------------|-------------|--------|
A|-6-6-6-6-6-6-|-6-6-6-6-6-6-|-5-5-5-5-5-5-|-3-3-3-3-----|--5-6-6-|
E|-------------|-------------|-------------|-------------|--------|


[Verse 5]

G|------------------|-------------------|-------------------|--------------------|
D|-3----------------|--3----------------|--3----------------|--3-----------------|
A|---------5---5-6--|----------5---5-6--|----------5---5-6--|----------5---5-----|
E|-----4------------|------4------------|------4------------|------4---------8-6-|


[Chorus]

G|-------------|-------------|-------------|-------------|
D|-------------|-------------|-------------|-------------|
A|-6-6-6-6-6-6-|-6-6-6-6-6-6-|-6-6-6-6-6-6-|-6-6-6-6-6-6-|
E|-------------|-------------|-------------|-------------|


G|-------------|-------------|-------------|-------------|--------|
D|-------------|-------------|-------------|-------------|--------|
A|-6-6-6-6-6-6-|-6-6-6-6-6-6-|-5-5-5-5-5-5-|-3-3-3-3-----|--5-6-6-|
E|-------------|-------------|-------------|-------------|--------|


[Verse 6]

G|------------------|-------------------|-------------------|--------------------|
D|-3----------------|--3----------------|--3----------------|--3-----------------|
A|---------5---5-6--|----------5---5-6--|----------5---5-6--|----------5---5-----|
E|-----4------------|------4------------|------4------------|------4---------8-6-|


[Chorus]

G|-------------|-------------|-------------|-------------|
D|-------------|-------------|-------------|-------------|
A|-6-6-6-6-6-6-|-6-6-6-6-6-6-|-6-6-6-6-6-6-|-6-6-6-6-6-6-|
E|-------------|-------------|-------------|-------------|


G|-------------|-------------|-------------|-------------|--------|
D|-------------|-------------|-------------|-------------|--------|
A|-6-6-6-6-6-6-|-6-6-6-6-6-6-|-5-5-5-5-5-5-|-3-3-3-3-----|--5-6-6-|
E|-------------|-------------|-------------|-------------|--------|


[Outro]

G|------------------|-------------------|-------------------|--------------------|
D|-3----------------|--3----------------|--3----------------|--3-----------------|
A|---------5---5-6--|----------5---5-6--|----------5---5-6--|----------5---5-----|
E|-----4------------|------4------------|------4------------|------4---------8-6-|


G|-------------|-------------|-------------|-------------|
D|-------------|-------------|-------------|-------------|
A|-6-6-6-6-6-6-|-6-6-6-6-6-6-|-6-6-6-6-6-6-|-6-6-6-6-6-6-|
E|-------------|-------------|-------------|-------------|


G|-------------|-------------|-------------|-------------|--------|
D|-------------|-------------|-------------|-------------|--------|
A|-6-6-6-6-6-6-|-6-6-6-6-6-6-|-5-5-5-5-5-5-|-3-3-3-3-----|--5-6-6-|
E|-------------|-------------|-------------|-------------|--------|



*************************

in regular sequence!

*************************
Suggest correction
Give kudos to tab author, rate the tab!
1 2 3 4 5
comments
print report bad tab
guest
You may want to rate the tab now too:
select rating
Wanna post a correction for this tab? Suggest correction