Oops, an error
Loading. Please wait.

Twin Layers Of Lightning Bass Tab

40 views 1 this week
no commentswrite comment
1 2 3 4 5
2 more votes to show rating
add to favorites
launch autoscroll
font size
0
reset
guitar tuner
Autoscroll
slow
fast
+/-
esc
set tempo
stop
Help us to improve Ultimate-Guitar.com Take our survey!
×
Author
Difficulty
novice
[Intro]

G|----------------|-----------------|----------------|-----------------|
D|--1-----------1-|-/5----------0-3-|-1------------1-|-/5----------0-3-|
A|----------------|-----------3-----|----------------|-----------3-----|
E|----------------|-----------------|----------------|-----------------|


G|----------------|-----------------|----------------|-----------------|
D|-1------------1-|-/5----------0-3-|-1------------1-|-/5----------0-3-|
A|----------------|-----------3-----|----------------|-----------3-----|
E|----------------|-----------------|----------------|-----------------|


[Verse]

G|----------------------|-----------------------|-----------------------|-----------------------|
D|-1-1-------3--5--5----|--1-1-------3--5--5----|--1-1-------3--5--5----|--1-1-------3--5--5----|
A|------1------------3--|-------1------------3--|-------1------------3--|-------1------------3--|
E|----------------------|-----------------------|-----------------------|-----------------------|


G|----------------------|-----------------------|-----------------------|----------------------------|
D|-1-1-------3--5--5----|--1-1-------3--5--5----|--1-1-------3--5--5----|--1-1-------3--5--5-------3-|
A|------1------------3--|-------1------------3--|-------1------------3--|-------1------------3-3-5---|
E|----------------------|-----------------------|-----------------------|----------------------------|


[Chorus]

G|---------------|----------------|---------------|--------------| (x2)
D|-1-1--1-1------|--0-0--0--------|--0---0-0------|-----------0--|
A|---------------|----------------|---------------|--0--2--3-----|
E|---------------|----------------|---------------|--------------|


[Interlude]

G|----------------------|-----------------------|-----------------------|-----------------------|
D|-1-1-------3--5--5----|--1-1-------3--5--5----|--1-1-------3--5--5----|--1-1-------3--5--5----|
A|------1------------3--|-------1------------3--|-------1------------3--|-------1------------3--|
E|----------------------|-----------------------|-----------------------|-----------------------|


[Verse]

G|----------------------|-----------------------|-----------------------|----------------------------|
D|-1-1-------3--5--5----|--1-1-------3--5--5----|--1-1-------3--5--5----|--1-1-------3--5--5-------3-|
A|------1------------3--|-------1------------3--|-------1------------3--|-------1------------3-3-5---|
E|----------------------|-----------------------|-----------------------|----------------------------|


[Chorus]

G|---------------|----------------|---------------|--------------| (x2)
D|-1-1--1-1------|--0-0--0--------|--0---0-0------|-----------0--|
A|---------------|----------------|---------------|--0--2--3-----|
E|---------------|----------------|---------------|--------------|


[Bridge]

G|-----------|-----------------|----------|-----------------|
D|--1---1-1--|--------1--------|-3---3-3--|--------3--------|
A|-----------|--3-1-3----3-1-3-|----------|--5-3-5----5-3-5-|
E|-----------|-----------------|----------|-----------------|


G|----------|-----------------|----------|-----------------|
D|-3---3-3--|--5-6-5-3--5-6-3-|-5---5-5--|--7-5---5--7-5-7-|
A|----------|-----------------|----------|------7----------|
E|----------|-----------------|----------|-----------------|


G|----------|-----------------|----------|-----------------|
D|-1---1-1--|--------1--------|-3---3-3--|--------3--------|
A|----------|--3-1-3----3-1-3-|----------|--5-3-5----5-3-5-|
E|----------|-----------------|----------|-----------------|


G|----------|-----------------|-3---3-3--|--5-3---3--5-3---|
D|-3---3-3--|--5-6-5-3--5-6-5-|----------|------5--------5-|
A|----------|-----------------|----------|-----------------|
E|----------|-----------------|----------|-----------------|


[Interlude]

G|----------------------|-----------------------|-----------------------|----------------------------|
D|-1-1-------3--5--5----|--1-1-------3--5--5----|--1-1-------3--5--5----|--1-1-------3--5--5-------3-|
A|------1------------3--|-------1------------3--|-------1------------3--|-------1------------3-3-5---|
E|----------------------|-----------------------|-----------------------|----------------------------|


[Chorus]

G|---------------|----------------|---------------|--------------| (x2)
D|-1-1--1-1------|--0-0--0--------|--0---0-0------|-----------0--|
A|---------------|----------------|---------------|--0--2--3-----|
E|---------------|----------------|---------------|--------------|


[Outro]

G|-----------|-----------------|----------|-----------------|
D|--1---1-1--|--------1--------|-3---3-3--|--------3--------|
A|-----------|--3-1-3----3-1-3-|----------|--5-3-5----5-3-5-|
E|-----------|-----------------|----------|-----------------|


G|----------|-----------------|----------|-----------------|
D|-3---3-3--|--5-6-5-3--5-6-3-|-5---5-5--|--7-5---5--7-5-7-|
A|----------|-----------------|----------|------7----------|
E|----------|-----------------|----------|-----------------|


G|----------|-----------------|----------|-----------------|
D|-1---1-1--|--------1--------|-3---3-3--|--------3--------|
A|----------|--3-1-3----3-1-3-|----------|--5-3-5----5-3-5-|
E|----------|-----------------|----------|-----------------|


G|----------|-----------------|-3---3-3--|--5-3---3--5-3---|-----|
D|-3---3-3--|--5-6-5-3--5-6-5-|----------|------5--------5-|-----|
A|----------|-----------------|----------|-----------------|--6--|
E|----------|-----------------|----------|-----------------|-----|



*************************

| / : slide up

*************************

in regular sequence!
Suggest correction
Give kudos to tab author, rate the tab!
1 2 3 4 5
comments
print report bad tab
guest
You may want to rate the tab now too:
select rating
Wanna post a correction for this tab? Suggest correction