Oops, an error
Loading. Please wait.

Two Steps Step Out Bass Tab

25 views 3 this week
no commentswrite comment
1 2 3 4 5
2 more votes to show rating
add to favorites
launch autoscroll
font size
0
reset
guitar tuner
Autoscroll
slow
fast
+/-
esc
set tempo
stop
Help us to improve Ultimate-Guitar.com Take our survey!
×
Author
Difficulty
novice
[Intro]

G|----------------------12-9--|----------------------12-9--| 
D|----------------------------|----------------------------|
A|--8-8-8-8-8-8-10-7----------|--8-8-8-8-8-8-10-7----------|
E|----------------------------|----------------------------|


G|----------------------12-9--|--------------------------12-9--| 
D|----------------------------|--------------------------------|
A|--8-8-8-8-8-8-10-7----------|--8-(8-8-8)-8-8-8-10-7----------|
E|----------------------------|--------------------------------|


[Verse]

G|----------------------12-9--|---------------------------12-9--| 
D|----------------------------|---------------------------------|
A|--8-8-8-8-8-8-10-7----------|--8-(8-8-8)-8-8-8-10--7----------|
E|----------------------------|---------------------------------|


G|--------------------------12-9--|-------------------------| 
D|--------------------------------|-------------------------|
A|--8-(8-8-8)-8-8-8-10-7----------|--8-(8-8-8)-8-8-8-10--7--|
E|--------------------------------|-------------------------|


[Chorus]

G|----------------|---------------|---------------------------|---------------------------|
D|----------------|---------------|---------------------------|---------------------------|
A|--8--8-8--------|-8--8-8--------|-8--8--8--8-7--7--7--7-7-7-|-8--8--8--8-7--7--7--7-7-7-|
E|---------8--8-8-|--------8--8-8-|---------------------------|---------------------------|


[Verse]

G|--------------------------12-9--|--------------------------12-9--| 
D|--------------------------------|--------------------------------|
A|--8-(8-8-8)-8-8-8-10-7----------|--8-(8-8-8)-8-8-8-10-7----------|
E|--------------------------------|--------------------------------|


G|--------------------------12-9--|---------------------------| 
D|--------------------------------|---------------------------|
A|--8-(8-8-8)-8-8-8-10-7----------|--8-(8-8-8)-8-8-8-10-10-7--|
E|--------------------------------|---------------------------|


[Chorus]

G|----------------|---------------|---------------|-------------|
D|----------------|---------------|---------------|-------------|
A|--8--8-8--------|-8--8-8--------|-8--8-8--------|-8--8-8------|
E|---------8--8-8-|--------8--8-8-|--------8--8-8-|--------8--8-|


[Bridge]

G|-------------------------------|-----|-------------------------------|-----|
D|-------------------------------|-----|-------------------------------|-----|
A|-5-4-------5-4-------5-4-------|--3--|-3-2-------3-2-------3-2-------|--3--|
E|-----5--5------5--5------5--5--|-----|-----3--3------3--3------3--3--|-----|


G|-------------------------------|-----|------------------------------|
D|-------------------------------|-----|------------------------------|
A|-5-4-------5-4-------5-4-------|--3--|-3-2-------3-2-------3-2------|
E|-----5--5------5--5------5--5--|-----|-----3--3------3--3------3--3-|


[Interlude]

G|--------------------------12-9-9-9--|--------------------------12-9-9-9--| 
D|------------------------------------|------------------------------------|
A|--8-(8-8-8)-8-8-8-10-7--------------|--8-(8-8-8)-8-8-8-10-7--------------|
E|------------------------------------|------------------------------------|


[Verse]

G|--------------------------12-9--|--------------------------12-9--| 
D|--------------------------------|--------------------------------|
A|--8-(8-8-8)-8-8-8-10-7----------|--8-(8-8-8)-8-8-8-10-7----------|
E|--------------------------------|--------------------------------|


G|--------------------------12-9--|-------------------------| 
D|--------------------------------|-------------------------|
A|--8-(8-8-8)-8-8-8-10-7----------|--8-(8-8-8)-8-8-8-10--7--|
E|--------------------------------|-------------------------|


[Chorus]

G|----------------|---------------|---------------------------|---------------------------|
D|----------------|---------------|---------------------------|---------------------------|
A|--8--8-8--------|-8--8-8--------|-8--8--8--8-7--7--7--7-7-7-|-8--8--8--8-7--7--7--7-7-7-|
E|---------8--8-8-|--------8--8-8-|---------------------------|---------------------------|


[Verse]

G|--------------------------12-9--|--------------------------12-9--| 
D|--------------------------------|--------------------------------|
A|--8-(8-8-8)-8-8-8-10-7----------|--8-(8-8-8)-8-8-8-10-7----------|
E|--------------------------------|--------------------------------|


G|--------------------------12-9--|---------------------------| 
D|--------------------------------|---------------------------|
A|--8-(8-8-8)-8-8-8-10-7----------|--8-(8-8-8)-8-8-8-10-10-7--|
E|--------------------------------|---------------------------|


[Chorus]

G|----------------|---------------|---------------|-------------|
D|----------------|---------------|---------------|-------------|
A|--8--8-8--------|-8--8-8--------|-8--8-8--------|-8--8-8------|
E|---------8--8-8-|--------8--8-8-|--------8--8-8-|--------8--8-|


[Bridge]

G|-------------------------------|-----|-------------------------------|-----|
D|-------------------------------|-----|-------------------------------|-----|
A|-5-4-------5-4-------5-4-------|--3--|-3-2-------3-2-------3-2-------|--3--|
E|-----5--5------5--5------5--5--|-----|-----3--3------3--3------3--3--|-----|


G|-------------------------------|-----|------------------------------|
D|-------------------------------|-----|------------------------------|
A|-5-4-------5-4-------5-4-------|--3--|-3-2-------3-2-------3-2------|
E|-----5--5------5--5------5--5--|-----|-----3--3------3--3------3--3-|


[Instrumental]

G|-----------------------------------|-----------------------------------| (x2)
D|-----------------------------------|-----------------------------------|
A|--8-(8-8-8)-8-8-8-10-7----7--7-7-7-|--8-(8-8-8)-8-8-8-10-7----7--7-7-7-|
E|-----------------------------------|-----------------------------------|


G|-----------------------------------|-------------------------| 
D|-----------------------------------|-------------------------|
A|--8-(8-8-8)-8-8-8-10-7----7--7-7-7-|--8-(8-8-8)-8-8-8-10--7--|
E|-----------------------------------|-------------------------|


[Chorus]

G|----------------|---------------|---------------|-------------|
D|----------------|---------------|---------------|-------------|
A|--8--8-8--------|-8--8-8--------|-8--8-8--------|-8--8-8------|
E|---------8--8-8-|--------8--8-8-|--------8--8-8-|--------8--8-|


[Outro]

G|-------------------------------|-----|-------------------------------|-----|
D|-------------------------------|-----|-------------------------------|-----|
A|-5-4-------5-4-------5-4-------|--3--|-3-2-------3-2-------3-2-------|--3--|
E|-----5--5------5--5------5--5--|-----|-----3--3------3--3------3--3--|-----|


G|-------------------------------|-----|-------------------------------|-----|
D|-------------------------------|-----|-------------------------------|-----|
A|-5-4-------5-4-------5-4-------|--3--|-3-2-------3-2-------3-2-------|--3--|
E|-----5--5------5--5------5--5--|-----|-----3--3------3--3------3--3--|-----|


G|-------------------------------|-----|-------------------------------|-----|
D|-------------------------------|-----|-------------------------------|-----|
A|-5-4-------5-4-------5-4-------|--3--|-3-2-------3-2-------3-2-------|--3--|
E|-----5--5------5--5------5--5--|-----|-----3--3------3--3------3--3--|-----|



*********************

| ( ) : very fast

*********************

in regular sequence!
Suggest correction
Give kudos to tab author, rate the tab!
1 2 3 4 5
comments
print report bad tab
guest
You may want to rate the tab now too:
select rating
Wanna post a correction for this tab? Suggest correction