Oops, an error
Loading. Please wait.

Watch It Fall tab

909 views 3 this week
no commentswrite comment
1 2 3 4 5
x 3
add to favorites
×
Save as Personal and add changes to this tab that will be seen only by you. Learn more ›
×
You can save this tab as Personal to edit and correct it or add notes. All changes will be seen only by you. Learn more »
launch autoscroll
font size
0
reset
how to read this tab
guitar tuner
edit
Autoscroll
slow
fast
+/-
esc
set tempo
stop
Author
Tabbers playing skills
advanced ++
gt1
e:----------------------------------------------------------------|
B:----------------------------------------------------------------|
G:-9-9--9-9-9--9-9-9-9-11-11-11-11-9-9-9-8-8-9-9--9-8-8-8-8-8-8-8-|
D:-9-9--9-9-9--9-9-9-9-11-11-11-11-9-9-9-8-8-9-9--9-8-8-8-8-8-8-8-|
A:-7-7--7-7-7--7-7-7-7-9--9--9--9--7-7-7-6-6-7-7--7-6-6-6-6-6-6-6-|
E:----------------------------------------------------------------|
gt2
e:--------------------------------------------------------------------|
B:---------------------------------------------------11b-11b-11b--14b-|
G:-9-9--9-9-9--9-9-9-9-11-11-11-11-9-9-9-8-8-9-9--9--13b-13b-13b--16b-|
D:-9-9--9-9-9--9-9-9-9-11-11-11-11-9-9-9-8-8-9-9--9-------------------|
A:-7-7--7-7-7--7-7-7-7-9--9--9--9--7-7-7-6-6-7-7--7-------------------|
E:--------------------------------------------------------------------|

gt1
e:----------------------------------------------------------------|
B:----------------------------------------------------------------|
G:-9-9--9-9-9--9-9-9-9-11-11-11-11-9-9-9-8-8-9-9--9-8-8-8-8-8-8-8-|
D:-9-9--9-9-9--9-9-9-9-11-11-11-11-9-9-9-8-8-9-9--9-8-8-8-8-8-8-8-|
A:-7-7--7-7-7--7-7-7-7-9--9--9--9--7-7-7-6-6-7-7--7-6-6-6-6-6-6-6-|
E:----------------------------------------------------------------|
gt2
e:--------------------------------------------------------------------|
B:---------------------------------------------------11b-11b-11b--11b-|
G:-9-9--9-9-9--9-9-9-9-11-11-11-11-9-9-9-8-8-9-9--9--13b-13b-13b--13b-|
D:-9-9--9-9-9--9-9-9-9-11-11-11-11-9-9-9-8-8-9-9--9-------------------|
A:-7-7--7-7-7--7-7-7-7-9--9--9--9--7-7-7-6-6-7-7--7-------------------|
E:--------------------------------------------------------------------|

gt1
e:------------------------------------------------------------------|
B:------------------------------------------------------------------|
G:-12----12----12----12----12----12----12----12----12----12---12----|
D:----14----14----14----14----14----14----14----14----14----14---14-|
A:------------------------------------------------------------------|
E:------------------------------------------------------------------|

gt2  pick slide  (down)
e:------------------------|
B:------------------------|
G:------------------------|
D:------------------------|
A:--x/--------------------|
E:--x/--------------------|


verse
gt1
:------------------------------------------------------|
:------------------------------------------5b-5b-5b-5b-|
:-7/9-9-9-9-9--7/9-9-9-9-9--7-7-7-7-7-7-7--7b-7b-7b-7b-|
:-7/9-9-9-9-9--7/9-9-9-9-9--7-7-7-7-7-7-7--------------|
:-5/7-7-7-7-7--5/7-7-7-7-7--5-5-5-5-5-5-5--------------|
:------------------------------------------------------|
gt2
:--------------------------------------------------------|
:--------------------------------------------------------|
:-7/9-9-9-9-9--7/9-9-9-9-9--7-7-7-7-7-7-7----------------|
:-7/9-9-9-9-9--7/9-9-9-9-9--7-7-7-7-7-7-7--7-7-7-7-7-7-7-|
:-5/7-7-7-7-7--5/7-7-7-7-7--5-5-5-5-5-5-5--7-7-7-7-7-7-7-|
:------------------------------------------5-5-5-5-5-5-5-|


gt1
pick slide
e:------------------------|
B:------------------------|
G:------------------------|
D:------------------------|
A:-x/---------------------|
E:-x/---------------------|

:----------------------------------------------------|
:----------------------------------------------------|
:-7/9-9-9-9-9--7/9-9-9-9-9--7------------------------|
:-7/9-9-9-9-9--7/9-9-9-9-9--7--------------7---7---7-|
:-5/7-7-7-7-7--5/7-7-7-7-7--5--------------7---7---7-|
:------------------------------------------5---5---5-|

chorus
gt1
e:-----------------------------------------|
B:-----------------------------------------|
G:-----------------------------------------|
D:-5-5-5-5-5-5---------------7-7-7-7-7-7-7-|
A:-3-3-3-3-3-3--5-5-5-5-5-5--5-5-5-5-5-5-5-|
E:--------------3-3-3-3-3-3----------------|
gt2
e:------------------------------------------|
B:---------------------------------------7~-|
G:-5-5-5-5-5-5---------------7-7-7-7-7-7-7~-|
D:-5-5-5-5-5-5--5-5-5-5-5-5--7-7-7-7-7-7----|
A:-3-3-3-3-3-3--5-5-5-5-5-5--5-5-5-5-5-5----|
E:--------------3-3-3-3-3-3-----------------|

gt1
e:----------------------------------------------------------------|
B:----------------------------------------------------------------|
G:-9-9--9-9-9--9-9-9-9-11-11-11-11-9-9-9-8-8-9-9--9-8-8-8-8-8-8-8-|
D:-9-9--9-9-9--9-9-9-9-11-11-11-11-9-9-9-8-8-9-9--9-8-8-8-8-8-8-8-|
A:-7-7--7-7-7--7-7-7-7-9--9--9--9--7-7-7-6-6-7-7--7-6-6-6-6-6-6-6-|
E:----------------------------------------------------------------|
gt2
e:--------------------------------------------------------------------|
B:---------------------------------------------------11b-11b-11b--11b-|
G:-9-9--9-9-9--9-9-9-9-11-11-11-11-9-9-9-8-8-9-9--9--13b-13b-13b--13b-|
D:-9-9--9-9-9--9-9-9-9-11-11-11-11-9-9-9-8-8-9-9--9-------------------|
A:-7-7--7-7-7--7-7-7-7-9--9--9--9--7-7-7-6-6-7-7--7-------------------|
E:--------------------------------------------------------------------|

gt1
e:----------------------------------------------------------------|
B:----------------------------------------------------------------|
G:-9-9--9-9-9--9-9-9-9-11-11-11-11-9-9-9-8-8-9-9--9-8-8-8-8-8-8-8-|
D:-9-9--9-9-9--9-9-9-9-11-11-11-11-9-9-9-8-8-9-9--9-8-8-8-8-8-8-8-|
A:-7-7--7-7-7--7-7-7-7-9--9--9--9--7-7-7-6-6-7-7--7-6-6-6-6-6-6-6-|
E:----------------------------------------------------------------|
gt2
e:--------------------------------------------------------------------|
B:---------------------------------------------------11b-11b-11b--11b-|
G:-9-9--9-9-9--9-9-9-9-11-11-11-11-9-9-9-8-8-9-9--9--13b-13b-13b--13b-|
D:-9-9--9-9-9--9-9-9-9-11-11-11-11-9-9-9-8-8-9-9--9-------------------|
A:-7-7--7-7-7--7-7-7-7-9--9--9--9--7-7-7-6-6-7-7--7-------------------|
E:--------------------------------------------------------------------|

verse
gt1
:------------------------------------------------------|
:------------------------------------------5b-5b-5b-5b-|
:-7/9-9-9-9-9--7/9-9-9-9-9--7-7-7-7-7-7-7--7b-7b-7b-7b-|
:-7/9-9-9-9-9--7/9-9-9-9-9--7-7-7-7-7-7-7--------------|
:-5/7-7-7-7-7--5/7-7-7-7-7--5-5-5-5-5-5-5--------------|
:------------------------------------------------------|
gt2
:--------------------------------------------------------|
:--------------------------------------------------------|
:-7/9-9-9-9-9--7/9-9-9-9-9--7-7-7-7-7-7-7----------------|
:-7/9-9-9-9-9--7/9-9-9-9-9--7-7-7-7-7-7-7--7-7-7-7-7-7-7-|
:-5/7-7-7-7-7--5/7-7-7-7-7--5-5-5-5-5-5-5--7-7-7-7-7-7-7-|
:------------------------------------------5-5-5-5-5-5-5-|


gt1
pick slide
e:------------------------|
B:------------------------|
G:------------------------|
D:------------------------|
A:-x/---------------------|
E:-x/---------------------|

:----------------------------------------------------|
:----------------------------------------------------|
:-7/9-9-9-9-9--7/9-9-9-9-9--7------------------------|
:-7/9-9-9-9-9--7/9-9-9-9-9--7--------------7---7---7-|
:-5/7-7-7-7-7--5/7-7-7-7-7--5--------------7---7---7-|
:------------------------------------------5---5---5-|

chorus
gt1
e:-----------------------------------------|
B:-----------------------------------------|
G:-----------------------------------------|
D:-5-5-5-5-5-5---------------7-7-7-7-7-7-7-|
A:-3-3-3-3-3-3--5-5-5-5-5-5--5-5-5-5-5-5-5-|
E:--------------3-3-3-3-3-3----------------|
gt2
e:------------------------------------------|
B:---------------------------------------7~-|
G:-5-5-5-5-5-5---------------7-7-7-7-7-7-7~-|
D:-5-5-5-5-5-5--5-5-5-5-5-5--7-7-7-7-7-7----|
A:-3-3-3-3-3-3--5-5-5-5-5-5--5-5-5-5-5-5----|
E:--------------3-3-3-3-3-3-----------------|

solo
:------------------------------------------------------------------------------|
:-12b-12b--12b-12b--12-12--12b-12b--12b-12b--12-12-----------------------------|
:-14b-14b--14b-14b--14-14--14b-14b--14b-14b--------14-12--------------12-------|
:--------------------------------------------------------14--14-14-14----14-14-|
:------------------------------------------------------------------------------|
:------------------------------------------------------------------------------|

e:-----------------------------------------------------------------------------------------|
B:-------------------------------------------------------------15-15b--15bp12--------------|
G:----12-14-12----12-14-12--14-14bp12----12-14-12----12-14-12-----------------14bp12----12-|
D:-14----------14--------------------14-----------14---------------------------------14----|
A:-----------------------------------------------------------------------------------------|
E:-----------------------------------------------------------------------------------------|


:--------------------------------------------------------------------------------------|
:---------------------------------------------12-----12-----------12-----12-----12-----|
:---------------------------------------12----12-----12----12-14b----14b----14b----14b-|
:-14-14-14~~~---------------------12-14----14-----14----14-----------------------------|
:---------------------10-12-12/14------------------------------------------------------|
:---------------10-12------------------------------------------------------------------|


e:-------------------------------------------------------------------------------------15b-|
B:-12-----12------12-15bp12-----12-15bp12--------------------------------------------------|
G:----14b----14b------------14b------------14b--12-14bp12----12----12-14-14b-14-12---------|
D:--------------------------------------------------------14----14-----------------14------|
A:-----------------------------------------------------------------------------------------|
E:-----------------------------------------------------------------------------------------|

e:-15bf~~~----------------|
B:------------------------|
G:------------------------|
D:------------------------|
A:------------------------|
E:------------------------|


e:---------------------------------------|
B:---------------------------------------|
G:---------------------------------------|
D:-5--5-------------------7---7----7---7-|x 2
A:-3--3-------5---5-------5---5----5---5-|
E:------------3---3----------------------| 

chorus
gt1
e:-----------------------------------------|
B:-----------------------------------------|
G:-----------------------------------------|
D:-5-5-5-5-5-5---------------7-7-7-7-7-7-7-|
A:-3-3-3-3-3-3--5-5-5-5-5-5--5-5-5-5-5-5-5-|
E:--------------3-3-3-3-3-3----------------|
gt2
e:------------------------------------------|
B:---------------------------------------7~-|
G:-5-5-5-5-5-5---------------7-7-7-7-7-7-7~-|
D:-5-5-5-5-5-5--5-5-5-5-5-5--7-7-7-7-7-7----|
A:-3-3-3-3-3-3--5-5-5-5-5-5--5-5-5-5-5-5----|
E:--------------3-3-3-3-3-3-----------------|

                               ----------                pick slide
:-----------------------------/------------------------------------|
:------------------------15b-/-15-15-15-15-------------------------|
:------------------------14b/--14-14-14-14-------------------------|
:---------------------------------------------2--------------------|
:-2---------2--------2------------------------2-----------x/-------|
:-0---------0--------0------------------------0-----------x/-------|

:----------------------------------------------------------|
:----------------------------------------------------------|
:----------------------------------------------------------|
:---------------------------------------------2------------|
:-2---------2--------2------------------------2------------|
:-0---------0--------0------------------------0------------|


Suggest correction
Creating personal tab
Creating personal tab
You can edit any tab online and save it as your Personal.

You can edit, replace or remove any tab part or add personal notes – all changes will be seen only by you.

Personal tabs can be accessed anytime from any device, even offline.
Learn more »
Give kudos to tab author, rate the tab!
1 2 3 4 5
comments
print report bad tab
guest
You may want to rate the tab now too:
select rating
Wanna post a correction for this tab? Suggest correction