Oops, an error
Loading. Please wait.

Born To Lie chords

412 views 6 this week
no commentswrite comment
1 2 3 4 5
2 more votes to show rating
add to favorites
×
Save as Personal and add changes to this tab that will be seen only by you. Learn more ›
×
You can save this tab as Personal to edit and correct it or add notes. All changes will be seen only by you. Learn more »
launch autoscroll
font size
0
reset
transpose
0
reset
display chords
guitar tuner
edit
Autoscroll
slow
fast
+/-
esc
set tempo
stop
Author
Strumming
There is no strumming pattern for this song yet. and get +5 IQ
  
NOT VERY GOOD LEARNING BY EAR SO SUGGESTIONS ARE ENCOURAGED BUT I THINK I'M CLOSE

[Intro]

                      THIS PART 3X    AND FINISH WITH THIS 1X

      Am      Am      Am       Am                 E      E

e-----0-0-----0-0-----0-0-----0-0-----------------0------0----------------------
B-----1-1-----1-1-----1-1-----1-1-----------------0------0----------------------     
G-----2-2-----2-2-----2-2-----2-2-----------------1------1----------------------         
D-----2-2-----2-2-----2-2-----2-2-----------------2------2----------------------         
A--0---------------0--------------------------22--2---2--2-----------------------   
E----------0---------------0----------------------0--0---0----------------------- 


[Verse]

      Am      Am      Am      Am      E       E       E       E

e-----0-0-----0-0-----0-0-----0-0-----0-0-----0-0-----0-0-----0-0----------------    
B-----1-1-----1-1-----1-1-----1-1-----0-0-----0-0-----0-0-----0-0----------------
G-----2-2-----2-2-----2-2-----2-2-----1-1-----1-1-----1-1-----1-1----------------       --      
D-----2-2-----2-2-----2-2-----2-2-----2-2-----2-2-----2-2-----2-2----------------          -- 
A--0---------------0------------------2-2--2--2-2-----2-2--2--2-2----------------             --
E----------0---------------0-------0--0-0-----0-0--0--0-0-----0-0----------------                --
                                                                                -                   --
      G       G       G       G       C       C       G       G                 ----------------        - 2X
                                                                                -                   --  
e-----3-3-----3-3-----3-3-----3-3-----0-0-----0-0-----3-3-----3-3----------------                --   
B-----3-3-----3-3-----3-3-----3-3-----1-1-----1-1-----3-3-----3-3----------------            --
G-----0-0-----0-0-----0-0-----0-0-----0-0-----0-0-----0-0-----0-0----------------         --
D-----0-0-----0-0-----0-0-----0-0-----2-2-----2-2-----0-0-----0-0----------------     --
A-----2-2--2--2-2-----2-2--2--2-2--3--3-3-----3-3-----2-2--2--2-2----------------
E--3--3-3-----3-3--3--3-3-----3-3----------3-------3--3-3-----3-3----------------


[Chorus]

      C       C       C       C       Am      Am       Am     Am
e-----0-0-----0-0-----0-0-----0-0-----0-0-----0-0-----0-0-----0-0----------------- --
B-----1-1-----1-1-----1-1-----1-1-----1-1-----1-1-----1-1-----1-1-----------------     -- 
G-----0-0-----0-0-----0-0-----0-0-----2-2-----2-2-----2-2-----2-2-----------------         --  3X
D-----2-2-----2-2-----2-2-----2-2-----2-2-----2-2-----2-2-----2-2-----------------         --
A--3--3-3-----3-3--3--3-3-----3-3--0---------------0------------------------------     --
E----------3---------------3---------------0---------------0---------------------- --
                                                                                
WHEN CHORUS IS FINISHED LIGHTLY PLAY A "G" A FEW TIMES THEN HIT "G" KINDA HARD TO LEAD OUT OF THE CHORUS 
AND BACK TO THE VERSE


[INTRO]   Am Am Am Am E E


[Verse]

Am
When i was a boy they said 
E
“son now don’t you lie”
G
 I learned to do it while
C                     G
looking in their eyes
Am
my daddy said “you fool,don’t you 
E
know the truth will set you free?”
G
oh my lord, well, that 
C                     G
don’t mean shit to me


[Chorus]

C
cuz i hurt so many from the 
Am
first day out the womb and i’ll 
C
hurt so many more until they 
Am
put me in my tomb 
C
wipe away your tears, i don’t 
Am
care if i made you cry
G 
haven’t you figured out by now 
G
i was born to lie


[Verse]

Am
when i was a boy, they said “now 
E
go confess your sins” 
G
i went up to a priest and i 
C                   G
told him what i did
Am
he said “god have mercy ten hail 
E
mary’s on your knees” 
G
 i threw away 
 C              G
all of my rosaries


[Chorus]

C
cuz i hurt so many from the 
Am
first day out the womb and i’ll 
C
hurt so many more until they 
Am
put me in my tomb 
C
wipe away your tears, i don’t 
Am
care if i made you cry
G 
haven’t you figured out by now 


[Bridge]

G             Am
i was born to lie
              C
i was born to lie
              D
i was born to lie
              E
i was born to lie

         
[Verse]

        Am
well, i know i could repent and my 
E
god will forgive
G
but no regrets is how i 
C                G
motherfuckin’ live
Am
well, when i’m at the gates, being 
E
judged for what i’ve done 
 G        
i know my time in hell has 
C              G                Am
come i know my time in hell has come


[Outro]

                    C
cause i was born to lie
              D
i was born to lie
                    E
my time in hell has come
                    Am
cause i was born to lie
              C
i was born to lie
              D
i was born to lie
                    E
my time in hell has come

i was born to lie

            
            
Suggest correction
Creating personal tab
Creating personal tab
You can edit any tab online and save it as your Personal.

You can edit, replace or remove any tab part or add personal notes – all changes will be seen only by you.

Personal tabs can be accessed anytime from any device, even offline.
Learn more »
Give kudos to tab author, rate the tab!
1 2 3 4 5
comments
print report bad tab
guest
You may want to rate the tab now too:
select rating
Wanna post a correction for this tab? Suggest correction