Oops, an error
Loading. Please wait.

Album Of The Year chords

version 2
version 2

Whole song

6,295 views 1 this week
1 commentread comment
1 2 3 4 5
3 more votes to show rating
add to favorites
×
Save as Personal and add changes to this tab that will be seen only by you. Learn more ›
×
You can save this tab as Personal to edit and correct it or add notes. All changes will be seen only by you. Learn more »
launch autoscroll
font size
0
reset
transpose
0
reset
simplify chords
display chords
guitar tuner
edit
Autoscroll
slow
fast
+/-
esc
set tempo
stop
Author
Strumming
There is no strumming pattern for this song yet. and get +5 IQ
Intro

e---------------------------------------------------|
b---1--------------1--------------------------------|
g---0--------------0--------------------------------|  (repeat when needed)
d---2--------------2--------------------------------|
a---0--------2-----0---------2----------------------|
E---------3---------------3-------------------------|

Verse:

Dmin              G
The first time that I met her

         C             C/B          Amin7

I was throwing up in the ladies room stall
Dmin                 G               C
She asked me if I needed anything; I said,
          C/B              Amin7
"I think I spilled my drink"

                  G
And that's how it started (or so I'd like to believe)...

e---------------------------------------------------|
b---1--------------1--------------------------------|
g---0--------------0--------------------------------|
d---2--------------2--------------------------------|
a---0--------2-----0---------2----------------------|
E---------3---------------3-------------------------|


Chorus:

Dmin                         G
And I know she loved me then, I swear to God she did


C                   C/B                      Amin7                G
It was the way she'd bite my lower lip and push her hips against my hips


F                   G
and dig her nails so deep into my skin.

Outro:

C
we just started laughing 'til it didn't hurt

C/B
we just started laughing 'til it didn't hurt

Amin7
we just started laughing 'til it didn't hurt

F
we just started laughing 'til it didn't hurt

End.

I'm not too sure about the outro. You'll have to work with it. Feel free to comment.

            
            
Suggest correction
Creating personal tab
Creating personal tab
You can edit any tab online and save it as your Personal.

You can edit, replace or remove any tab part or add personal notes – all changes will be seen only by you.

Personal tabs can be accessed anytime from any device, even offline.
Learn more »
Give kudos to tab author, rate the tab!
1 2 3 4 5
comments
print report bad tab
1 comment total.
0 reply
Peter430 41 Jul 13, 2009 03:19 PM

The "Dmin" is a d minor. Not whatever that box says

guest
You may want to rate the tab now too:
select rating
Wanna post a correction for this tab? Suggest correction