Oops, an error
Loading. Please wait.

Boyfriend Chords

version 3
version 3

Whole song

13 views 1 this week
no commentswrite comment
1 2 3 4 5
3 more votes to show rating
add to favorites
launch autoscroll
font size
0
reset
transpose
0
reset
display chords
guitar tuner
Autoscroll
slow
fast
+/-
esc
set tempo
stop
Help us to improve Ultimate-Guitar.com Take our survey!
×
Author
Difficulty
intermediate
(Thanks a lot to @aemonsandwith. I only modified it so we don't need capo)
 
[Intro]
                 E                           B
e|-------------------------------------------2-2-2-2-2-2-2-2-2-2-2-|
B|-7-5-4-2-4-2-0-----------------------5-4-2-4-4-4-4-4-4-4-4-4-4-4-|
G|---------------1-1-1-1-1-1-1-1-1-1-1-------4-4-4-4-4-4-4-4-4-4-4-|
D|---------------2-2-2-2-2-2-2-2-2-2-2-------4-4-4-4-4-4-4-4-4-4-4-|
A|---------------2-2-2-2-2-2-2-2-2-2-2-----------------------------|
E|-----------------------------------------------------------------|
 
[Verse 1] 
E
And if I had a boyfriend
B
I'd treat him so right
E
And if I had a boyfriend
B 
I'd love him all night
 
[Chorus] 
                 C#m      
And we can break your heart
       E         F#
So you see how I feel
         C#m
I need a boyfriend
        E        F#
Or just anything real
 
[Verse 2] 
E
And if I had a boyfriend
B
I'd tell him I care
E
And if I had a boyfriend
B 
Well I'd cut his hair
 
[Chorus] 
                 C#m      
And we can break your heart
       E         F#
So you see how I feel
         C#m
I need a boyfriend
        E        F#
Or just anything real
                 C#m      
And we can break your heart
       E         F#
So you see how I feel
         C#m
I need a boyfriend
        E        F#
Or just anything real

[Instrumental] x2 
                 E                           B
e|-------------------------------------------2-2-2-2-2-2-2-2-2-2-2-|
B|-7-5-4-2-4-2-0-----------------------5-4-2-4-4-4-4-4-4-4-4-4-4-4-|
G|---------------1-1-1-1-1-1-1-1-1-1-1-------4-4-4-4-4-4-4-4-4-4-4-|
D|---------------2-2-2-2-2-2-2-2-2-2-2-------4-4-4-4-4-4-4-4-4-4-4-|
A|---------------2-2-2-2-2-2-2-2-2-2-2-----------------------------|
E|-----------------------------------------------------------------|

[Chorus]
                 C#m      
And we can break your heart
       E         F#
So you see how I feel
         C#m
I need a boyfriend
        E        F#
Or just anything real
                 C#m      
And we can break your heart
       E         F#
So you see how I feel
         C#m
I need a boyfriend
        E        F#
Or just anything real 
Suggest correction
Give kudos to tab author, rate the tab!
1 2 3 4 5
comments
print report bad tab
guest
You may want to rate the tab now too:
select rating
Wanna post a correction for this tab? Suggest correction