Oops, an error
Loading. Please wait.

Moon Gone Down chords

110 views 9 this week
no commentswrite comment
1 2 3 4 5
2 more votes to show rating
add to favorites
×
Save as Personal and add changes to this tab that will be seen only by you. Learn more ›
×
You can save this tab as Personal to edit and correct it or add notes. All changes will be seen only by you. Learn more »
launch autoscroll
font size
0
reset
transpose
0
reset
simplify chords
display chords
guitar tuner
edit
Autoscroll
slow
fast
+/-
esc
set tempo
stop
Strumming
There is no strumming pattern for this song yet. and get +5 IQ
CAPO 3

The hybrid picking in the beginning (relative to capo)

Combination of studio version (https://youtu.be/uWg1bMK9bko)
& Kevin Russell's acoustic v. (https://youtu.be/83xTj4ByRdg)

e|-----------------|-----------------|-----------------|-----------------|
B|-----------------|-----------------|-----------------|-------3---------|
G|---------0h2-----|2h4----2---0-----|---------0h2-----|2h4------------0-|
D|-----2p0---------|-------------2h0-|-----2p0---------|-----------0-0---|
A|-----------------|-----------------|-----------------|-----------------|
E|-3---3---3---3---|-3---3---3---3---|-3---3---3---3---|-3---3---3---3---|
   G

e|-----------------|-----------------|-----------------|-----------------|
B|-----------------|-----------------|-----------------|-------3---------|
G|---------0h2-----|2h4----2---0---0-|---------0h2-----|2h4--------4-----|
D|-----2p0---------|-------------2---|-----2p0---------|-------------0---|
A|-----------------|-----------------|-----------------|-----------------|
E|-3---3---3---3---|-3---3---3---3---|-3---3---3---3---|-3---3---3---3---|

e|-----------------|-----------------|-----------------|-----------------|
B|-----3-----0-----|-----------------|-----1-----0-----|-------0---0---3-|
G|-----2-----------|-2-----0---0---0-|-----0-----0-----|-0-----0-2-0---0-|
D|-0---------------|-----------0-0---|-----------------|-2---2---2---2---|
A|-0-------0---0---|-----0---0---2---|-3-------3---3---|-3---3---3---3---|
E|-----------------|-----------------|-----------------|-----------------|
   D/A                         ( G/B ) C

e|-----------------|-----------------|-----------------|-----------------|
B|-----------------|-----------------|-----------------|-----------3-----|
G|---------0h2-----|2h4----2---0---0-|---------0h2-----|-0---------0-----|
D|-----2p0---------|-------------2---|-----2p0---------|-----2p0-2---0---|
A|-----------------|-----------------|-----------------|-------------0---|
E|-3---3---3---3---|-3---3---3---3---|-3---3---3---3---|-3---3---3-------|
   G

B7 = x21202
G/B is only in acoustic version

Verse + interlude = 1 cycle of intro


ORDER: I V1 INT1 V2 INT2 C INT3=I V3 INT4 C INT5 V4 INT6 OT


[INTRO]
  G |         |   |   |
  G |         |   |   |
D/A | D/A G/B | C |   |
  G |         |   |   |


[VERSE 1]
   G
   Me and the coke and cigarettes looking at the crack of dawn
   G
   I got a house that’s full of lights but I never turn them on
D/A                G/B C
   Heater’s broken,     moon is going down


[INTERLUDE 1]
G | | | |


[VERSE 2]
   G
   Living in a house of blue lights, wolf knocking at the door
   G
   Chopping down that cedar tree, looking for a couple more
D/A                  G/B C
   Bells are ringing,     moon is going down


[INTERLUDE 2]
G | | | |


[CHORUS]
C                B7
   Moon gone down  on my porch
D/A                 D7
   inhale and exhale  this tiny torch


[INTERLUDE 3] (as intro)
  G |         |   |   |
  G |         |   |   |
D/A | D/A G/B | C |   |
  G |         |   |   |


[VERSE 3]
   G
   Built me a boat on a rainy day waiting for my ship to sail
   G
   Help my thumb up to the moon, look like I lost my fingernail
D/A                G/B C
   Cats are crying,     moon is going down


[INTERLUDE 4]
G | | | |


[CHORUS]
C                B7
   Moon gone down  on my porch
D/A                 D7
   inhale and exhale  this tiny torch


[INTERLUDE 5] (measures in parentheses only in acoustic version)
  G |   |   |   |
  G |   |   |   |
( G |   |   |   |
  G |   |   |   | )


[VERSE 4]
   G
   Sun comes up in the morning, shines on my sleepy head
   G
   One time I woke up and found angels all around my bed
D/A               G/B C
   Angels, angels,     moon is going down


[INTERLUDE 6]
  G |   |   |   |


[OUTRO TAG]
D/A               G/B C                    G |   |   |   |
   Angels, angels,     moon is going down
D/A               G/B C                    G
   Angels, angels,     moon is going down
Suggest correction
Creating personal tab
Creating personal tab
You can edit any tab online and save it as your Personal.

You can edit, replace or remove any tab part or add personal notes – all changes will be seen only by you.

Personal tabs can be accessed anytime from any device, even offline.
Learn more »
Give kudos to tab author, rate the tab!
1 2 3 4 5
comments
print report bad tab
guest
You may want to rate the tab now too:
select rating
Wanna post a correction for this tab? Suggest correction