Oops, an error
Loading. Please wait.

19 20 20 Tab

version 2
version 2

Whole song

451 views 1 this week
no commentswrite comment
1 2 3 4 5
please rate
add to favorites
launch autoscroll
font size
0
reset
how to read this tab
guitar tuner
Autoscroll
slow
fast
+/-
esc
set tempo
stop
Help us to improve Ultimate-Guitar.com Take our survey!
×
Contributor
Difficulty
Tuning
bpazolli 1,320
novice
D A D G B E
Song: 19 20 20
Artist: The Grates (Brisbane, Queensland)
Album: Gravity Won't Get You High
Tuning: Drop D Tuning

Tabbed by: Ben Pazolli (Perth, Western Australia)
                (bpazolli|bpazolli@gmail.com)

This tab is heavily based on the tab done by die!die!die!

The main difference is more detail on actual number of strokes
and a slightly alternative way of playing which is how
I would play it and do play it also easier to read

The Outtro is quite meesy and you could play anything you want
probably I based it mostly on what make sense therefore it way 
be inaccurate

Intro

E|-----------------------------|
B|-----------------------------|
G|-----------------------------|
D|-9-9-9--11-11--x(16)-x-x-x-x-|
A|-9-9-9--11-11--x(16)-x-x-x-x-|
D|-9-9-9--11-11--x(16)-x-x-x-x-|*

E|----------------------------|
B|----------------------------|
G|----------------------------|
D|-9-9-9--11-11--x(16)-x-x-16-|
A|-9-9-9--11-11--x(16)-x-x-16-|
D|-9-9-9--11-11--x(16)-x-x-16-|

E|---------------------|
B|---------------------|
G|---------------------|
D|-11-11-x(16)-x-x-x-x-|
A|-11-11-x(16)-x-x-x-x-|
D|-11-11-x(16)-x-x-x-x-|

E|----------------------------|
B|----------------------------|
G|----------------------------|
D|-9-9-9--11-11--x(16)-x-x-16-|
A|-9-9-9--11-11--x(16)-x-x-16-|
D|-9-9-9--11-11--x(16)-x-x-16-|

Verse 3x

E|----------------------|
B|----------------------|
G|----------------------|
D|-11-11--9-9--6-6--4-4-|
A|-11-11--9-9--6-6--4-4-|
D|-11-11--9-9--6-6--4-4-|

Chorus (1st)

E|-------------------|
B|-------------------|
G|-------------------|
D|-11-11-11-11-11-11-|
A|-11-11-11-11-11-11-|
D|-11-11-11-11-11-11-|

Verse 3x

Chorus (2nd) 2x

E|---------------------------------------|
B|---------------------------------------|
G|---------------------------------------|
D|-11-11-11-11-11-11--14-14-14--16-16-16-|
A|-11-11-11-11-11-11--14-14-14--16-16-16-|
D|-11-11-11-11-11-11--14-14-14--16-16-16-|

Verse 3x

Chorus (1st)

Verse 3x

Chorus (2nd) 2x

Bridge (Part 1) 3x

E|-------------------------------------|
B|-------------------------------------|
G|-------------------------------------|
D|--9---9---14---14---7---7---12-11-10-|
A|--9---9---14---14---7---7---12-11-10-|
D|--9---9---14---14---7---7---12-11-10-|

Bridge (Part 2)

E|----------------------------------------|
B|----------------------------------------|
G|----------------------------------------|
D|--9---9---14---14---7---7---6----5----4-|
A|--9---9---14---14---7---7---6----5----4-|
D|--9---9---14---14---7---7---6----5----4-|

Chorus (2nd) 4x

Outtro
Slide this real slow and let ring out listen to the track
and you will hear what I mean

E|------|
B|------|
G|------|
D|-11\0-|
A|-11\0-|
D|-11\0-|

* The intro is the hardest part too hard for John maybe 
listen carefully and you can hear the muted strings
playing continuously on a 2nd track so don't feel bad
if it takes awhile to get down.

My Settings to get you started:
Gain: 1/4
Treble: 1
Bass: 0
Volume: Set as required
Overdrive: ON
Pickup: Humbucker close to the bridge
Tone: Full
Volume on guitar: Set as required (FULL)

Ben Pazolli uses a Yamaha Pacifica 112J and VOX Pathfinder 10
Suggest correction new What's this?
You can suggest a correction to this tab. Community and Mods will review your correction and vote to approve or reject it.
comments
We did not receive enough feedback on this tab! Please rate:
print report bad tab
1 2 3 4 5
guest
You may want to rate the tab now too:
select rating
Please do not post tabs as comments. Select "correction" instead!