Oops, an error
Loading. Please wait.

19 20 20 Tab

version 3
version 3

Whole song

955 views 1 this week
no commentswrite comment
1 2 3 4 5
please rate
add to favorites
launch autoscroll
font size
0
reset
how to read this tab
guitar tuner
Tab Pro tools
  • play this tab
  • loop segment
  • change instrument
  • show fretboard
  • metronome
×
Best way to learn
"19 20 20"
Autoscroll
slow
fast
+/-
esc
set tempo
stop
Difficulty
novice
The Grates – 19 20 20
From ‘Gravity Won’t Get You High’
Standard Tuning

Intro
[----------------------{---------------------------}-------------|
[----------------------{-------------------11-~----}-------------|
[--8--8-8--10-10-xxxxx-{-8-8-8--10-10-xxx----------}-10-10-xxxxx-| x2
[----------------------{-------------------11-~----}-------------|
[--9--9-9--11-11-xxxxx-{-9-9-9--11--11-xxx--9-~---}--11-11-xxxxx-|
[--7--7-7---9--9-xxxxx-{-7-7-7---9---9-xxx--------}--9--9-xxxxx--|
the 2nd time only play the part in the {}s

Verse
[------------------------------------|
[------------------------------------|
[---10-10----8-8---5-5----3-3-----5--| x3
[------------------------------------|
[---11-11----9-9---6-6----4-4-----6--|
[---9--9----=7-7---4-4----2-2-----4--|

Chorus (part 1)
[--------------------------|
[--------------------------|
[---10-~----10-~-----------|
[--------------------------|
[---11-~----11-~-----------|
[---9-~------9-~-----------|

go to verse again

Chorus (part 2)
[---------------------------------------|
[---------------------------------------|
[---10-~--10-~----13-~----15-~----------|
[---------------------------------------|
[---11-~--11-~----14-~----16-~----------|
[----9-~--9-~-----12-~----14-~----------|


Bridge
[---------------------------------------------|
[-----------9-9-xx----------------------------|
[-8-8-xx------------10-10-xx--11--10---9---8--|
[-----------9-9-xx----------------------------|
[-9-9-xx----7-7-xx--11-11-xx--12—-11--10---9--|
[-7-7-xx------------9-—-9-xx--10---9---8---7--|

Bridge (I think I found you in a strange position)
[---------------------------------------|
[---------------------------------------|
[-8-8-xx----10-10-10---9---9--9----8-~--|
[---------------------------------------|
[-9-9-xx----11-11-11---10-10-10----9-~--|
[-7-7-xx----9--9--9----8---8--8----7-~--|

go to chorus

I’ve got the grates ‘til death do us party – live at the forum’ dvd and I checked what 
was playing and I’m sure its right.
Email me for comments ect. or to talk about the grates at people_know_mee@hotmail.com
Enjoy! xo
comments
We did not receive enough feedback on this tab! Please rate:
print report bad tab
1 2 3 4 5
I want to post or [tab]
guest
You may want to rate the tab now too:
select rating
Please do not post tabs as comments. Select "correction" instead!