Oops, an error
Loading. Please wait.

Aw Yeah Tab

version 1
version 1

Intro

Whole song

1,020 views 1 this week
no commentswrite comment
1 2 3 4 5
please rate
add to favorites
launch autoscroll
font size
0
reset
how to read this tab
guitar tuner
Autoscroll
slow
fast
+/-
esc
set tempo
stop
Help us to improve Ultimate-Guitar.com Take our survey!
×
----------------------------------------------------------------------------
                             Aw Yeah - The Grates (Intro)
----------------------------------------------------------------------------
Tabbed by:BlocPartyFreak
Email:madfender@gmail.com

Tuning:Standard
 
< = Down    
^ = Up
                        <  ^        <  ^                   <  ^
e|--11--11--11--11--11--x--x--6--6--x--x-------------------x--x--11-11-----|
B|--11--11--11--11--11--x--x--6--6--x--x-------------------x--x--11-11-----|
G|--12--12--12--12--12--x--x--5--5--x--x-------------------x--x--12-12-----|
D|--13--13--13--13--13--x--x--4--4--x--x--18-18-18-18-18-18x--x--13-13-----|
A|--13--13--13--13--13--x--x--4--4--x--x--18-18-18-18-18-18x--x--13-13-----|
E|--11--11--11--11--11--x--x--6--6--x--x--16-16-16-16-16-16x--x--11-11-----|
Hopefully you'll figure out the rhythym!

That's all I've got for now, comments and corrections welcomed!

BlocPartyFreak
Suggest correction new What's this?
You can suggest a correction to this tab. Community and Mods will review your correction and vote to approve or reject it.
comments
We did not receive enough feedback on this tab! Please rate:
print report bad tab
1 2 3 4 5
guest
You may want to rate the tab now too:
select rating
Please do not post tabs as comments. Select "correction" instead!