Oops, an error
Loading. Please wait.

Aw Yeah Tab

version 1
version 1

Whole song

1,388 views 1 this week
no commentswrite comment
1 2 3 4 5
please rate
add to favorites
launch autoscroll
font size
0
reset
how to read this tab
guitar tuner
Tab Pro tools
  • play this tab
  • loop segment
  • change instrument
  • show fretboard
  • metronome
×
Best way to learn
"Aw Yeah"
Autoscroll
slow
fast
+/-
esc
set tempo
stop
Contributor
Intro/Verse
e|---------------------------------------------------------------------------|
B|---------------------------------------------------------------------------|
G|-8-8-8888--------13-13-13131313--8-8---------------------------------------|
D|-8-8-8888---8-8--13-13-13131313--8-8---------------------------------------|
A|-6-6-6666---8-8--11-11-11111111--6-6---------------------------------------|
E|------------6-6------------------------------------------------------------|

Chorus

e|---------------------------------------------------------------------------|
B|---------------------------------------------------------------------------|
G|-6-6-6666-------8-8-888888-8-----------------------------------------------|
D|-6-6-6666--6-6--8-8-888888-8-----------------------------------------------|
A|-4-4-4444--6-6--6-6-666666-6-----------------------------------------------|
E|-----------4-4-------------------------------------------------------------|

Lead Riff for chorus

e|---------13-13--------18-16----15------------------------------------------|
B|-14-14-14------14-16-------16----16----------------------------------------|
G|---------------------------------------------------------------------------|
D|---------------------------------------------------------------------------|
A|---------------------------------------------------------------------------|
E|---------------------------------------------------------------------------|

Bridge

e|----6-6-6-6-6-6-8-10-------------------------------------------------------|
B|---------------------------------9-9-9-9-9-9-9-----------------------------|
G|-8----------------------------------------------8--8-----------------------|
D|-8---------------------8---11-------------------8--8-----------------------|
A|-6---------------------8---11-------------------6--6-----------------------|
E|-----------------------6---9-----------------------------------------------|

2nd Chorus                                Last time
e|---------------------------------------------------------------------------|
B|---------------------------------------------------------------------------|
G|-6-6-6666-------8-8-888888-8-----------------------------------------------|
D|-6-6-6666--6-6--8-8-888888-8-----------7-7-7-7-7-7-7-7---------------------|
A|-4-4-4444--6-6--6-6-666666-6-----------7-7-7-7-7-7-7-7---------------------|
E|-----------4-4-------------------------5-5-5-5-5-5-5-5---------------------|

Outro
e|---------------------------------------------------------------------------|
B|---------------------------------------------------------------------------|
G|-8-8-8888--------6-6-6-6-6-6-6---------------------------------------------|
D|-8-8-8888--8-8---6-6-6-6-6-6-6--8--8---------------------------------------|
A|-6-6-6666--8-8---4-4-4-4-4-4-4--8--8---------------------------------------|
E|-----------6-6------------------6--6---------------------------------------|

Till The End
e|---------------------------------------------------------------------------|
B|---------------------------------------------------------------------------|
G|-8-8-15-15-15--13-13-13------------12-12-12----------13-13-13--------------|
D|-8-8-15-15-15--13-13-13---11-11-11-12-12-12-10-10-10-13-13-13-11-11-11-----|
A|-6-6-13-13-13--11-11-11---11-11-11-10-10-10-10-10-10-11-11-11-11-11-11-----|
E|--------------------------9--9--9-----------8--8--8-----------9--9--9------|

e|---------------------------------------------------------------------------|
B|---------------------------------------------------------------------------|
G|-13-13-13-13-13-13-13-13---------------------------------------------------|
D|-13-13-13-13-13-13-13-13---------------------------------------------------|
A|-11-11-11-11-11-11-11-11---------------------------------------------------|
E|---------------------------------------------------------------------------|
comments
We did not receive enough feedback on this tab! Please rate:
print report bad tab
1 2 3 4 5
I want to post or [tab]
guest
You may want to rate the tab now too:
select rating
Please do not post tabs as comments. Select "correction" instead!