Oops, an error
Loading. Please wait.

Feels Like Pain Bass Tab

447 views 1 this week
no commentswrite comment
1 2 3 4 5
please rate
add to favorites
launch autoscroll
font size
0
reset
guitar tuner
Autoscroll
slow
fast
+/-
esc
set tempo
stop
Help us to improve Ultimate-Guitar.com Take our survey!
×
Difficulty
novice
I know therte is no bass in the song but it still sounds cool. by the way its my first tab.

Standard Tuning

                                  VERSE
G--------------------------------------|
D--------------------------------------|
A---------2-2-2-2-0-2-3-3-3-3----------|
E-0-0-0-0---------------------3-3-3-3--|


CHORUS
G--------------------------------------|
D--------------------------------------|
A---------2-2-2-2-2-2-3-3-3-3----------|
E-0-0-0-0---------------------3-3-3-3--|

You can change the courus around to suit the part in the song. just mix it up and have fun!
Suggest correction
Give kudos to tab author, rate the tab!
1 2 3 4 5
comments
print report bad tab
guest
You may want to rate the tab now too:
select rating
Please do not post tabs as comments. Select "correction" instead!