Oops, an error
Loading. Please wait.

Sukkafish Tab

version 1
version 1

Whole song

837 views 1 this week
no commentswrite comment
1 2 3 4 5
please rate
add to favorites
launch autoscroll
font size
0
reset
how to read this tab
guitar tuner
Autoscroll
slow
fast
+/-
esc
set tempo
stop
Help us to improve Ultimate-Guitar.com Take our survey!
×
Author
The Grates - Sukkafish
I used the intro tab for this song to work out the rest.


Intro/Verse;


E-|--7-7---10-10---15-15---10-10---7-7---3-3---7-7---3-3--|-
B-|--0-0----0--0----0--0----0--0---0-0---0-0---0-0---0-0--|-  repeat
G-|-------------------------------------------------------|-
D-|-------------------------------------------------------|-
A-|-------------------------------------------------------|-
E-|-------------------------------------------------------|-



1st Bridge:

      D#               F
E-|------------------------------------------------|-
B-|------------------------------------------------|-
G-|---8-8-8-8-8-8-8-8-/10-10-10-10-10-10-10-10-----|-
D-|---8-8-8-8-8-8-8-8-/10-10-10-10-10-10-10-10-----|-
A-|---6-6-6-6-6-6-6-6-/8--8—-8—-8—-8—-8—-8--8------|-
E-|------------------------------------------------|-

      G
E-|------------------------------------------------|-
B-|------------------------------------------------|-
G-|------------------------------------------------|-
D-|---5-5-5-5-5-5-5-5-5-5-5-5-5-5-5-5--------------|-
A-|---5-5-5-5-5-5-5-5-5-5-5-5-5-5-5-5--------------|-
E-|---3-3-3-3-3-3-3-3-3-3-3-3-3-3-3-3--------------|-



2nd Bridge:

      A           E               A
E-|---5---5-5-5---0-0-0-----------5-5-5-5-5-5-5--------------|-
B-|---5---5-5-5---0-0-0-----------5-5-5-5-5-5-5--------------|-
G-|---6---6-6-6---1-1-1---(x7)----6-6-6-6-6-6-6--------------|-
D-|---7---7-7-7---2-2-2-----------7-7-7-7-7-7-7--------------|-
A-|---7---7-7-7---2-2-2-----------7-7-7-7-7-7-7--------------|-
E-|---5---5-5-5---0-0-0-----------5-5-5-5-5-5-5--------------|-


Outro:

E-|--7-7---10-10---15-15---10-10---7-7---3-3---7-7-10-7-5-3--|-
B-|--0-0----0--0----0--0----0--0---0-0---0-0---0-------------|-
G-|----------------------------------------------------------|-
D-|----------------------------------------------------------|-
A-|----------------------------------------------------------|-
E-|----------------------------------------------------------|-


Thats Basically It. Have a listen to get it perfect. HY.
Suggest correction
Give kudos to tab author, rate the tab!
1 2 3 4 5
comments
print report bad tab
guest
You may want to rate the tab now too:
select rating
Please do not post tabs as comments. Select "correction" instead!