Oops, an error
Loading. Please wait.

Sweet Dreams Tab

1,337 views 1 this week
no commentswrite comment
1 2 3 4 5
please rate
add to favorites
launch autoscroll
font size
0
reset
how to read this tab
guitar tuner
Tab Pro tools
  • play this tab
  • loop segment
  • change instrument
  • show fretboard
  • metronome
×
Best way to learn
"Sweet Dreams"
Autoscroll
slow
fast
+/-
esc
set tempo
stop
Contributor
Difficulty
novice
Artist: The Grates
Song: Sweet Dreams
Album: Single (Triple J “Like A Version”)
Tuning: Standard

Intro

e |--0-------------------|
B |--0-------------------|
G |--1-------------------|
D |--2-------------------|
A |--2-------------------|      
E |--0-------------------|

Verse 

e |--4---4----5------------|
B |--5---4----5------------|
G |--6---5----6------------|
D |--6---6----7------------|
A |--4---6----7------------|    
E |--0---4----5------------|

Sweet dreams, when I'm tired,
sweet dreams, when I'm alone.

e |--0---2----5------------|
B |--0---2----5------------|
G |--1---3----6------------|
D |--2---4----7------------|
A |--2---4----7------------|    
E |--0---2----5------------|

All that I have sleeps beside me.

e |--4---4----5------------|
B |--5---4----5------------|
G |--6---5----6------------|
D |--6---6----7------------|
A |--4---6----7------------|    
E |--0---4----5------------|

I feel, less important.
I feel, like only you know.

e |--0---2----5------------|
B |--0---2----5------------|
G |--1---3----6------------|
D |--2---4----7------------|
A |--2---4----7------------|    
E |--0---2----5------------|

All that you bring is a weakness.

Pre-Chorus

e |--2---4---7---0----7------|
B |--4---5---9---2----9------|
G |--4---6---9---2----9------|
D |--4---6---9---2----9------|
A |--2---4---7---0----7------|  
E |--x---x---x---x----x------|

If it's a part of you.
If it's a part of me.
If it's a part of you.
If it's a part of me.

e |--2---4---7---0----------|
B |--4---5---9---2----------|
G |--4---6---9---2----------|
D |--4---6---9---2----------|
A |--2---4---7---0----------|   
E |--x---x---x---x----------|

If my colour's blind in all?
wearin' in the sun.
I can't compete.


Chorus

e |--0---2----4---5---------|
B |--0---2----5---5---------|
G |--1---3----6---6---------|
D |--2---4----6---7---------|
A |--2---4----4---7---------|   
E |--0---2----x---5---------|

Don't make me feel like
You-oo-ooh-oo-ooh-oo-ooh.
Don't make me feel like
You-oo-ooh-oo-ooh-oo-ooh.

Verse 2

e |--4---4----5------------|
B |--5---4----5------------|
G |--6---5----6------------|
D |--6---6----7------------|
A |--4---6----7------------|    
E |--0---4----5------------|

Sweet dreams, when I'm tired,
sweet dreams, when I'm alone.

e |--0---2----5------------|
B |--0---2----5------------|
G |--1---3----6------------|
D |--2---4----7------------|
A |--2---4----7------------|    
E |--0---2----5------------|

Rest from the curse you've afflicted.

e |--4---4----5------------|
B |--5---4----5------------|
G |--6---5----6------------|
D |--6---6----7------------|
A |--4---6----7------------|    
E |--0---4----5------------|

Our hell, it's so heavy,
our hell, like only I know.

e |--0---2----5------------|
B |--0---2----5------------|
G |--1---3----6------------|
D |--2---4----7------------|
A |--2---4----7------------|    
E |--0---2----5------------|

Every day ends where it started.

Pre-Chorus

Chorus

Don't make me, feel like.
Like you. Like you.

Bridge

e |--2---4---7---0----2------|
B |--4---5---9---2----2------|
G |--4---6---9---2----3------|
D |--4---6---9---2----4------|
A |--2---4---7---0----4------|  
E |--x---x---x---x----2------|


e |--2---4---7---0----------|
B |--4---5---9---2----------|
G |--4---6---9---2----------|
D |--4---6---9---2----------|
A |--2---4---7---0----------|   
E |--x---x---x---x----------|

Chorus

Outro 

e |--0---2----4---5---------|
B |--0---2----5---5---------|
G |--1---3----6---6---------|
D |--2---4----6---7---------|
A |--2---4----4---7---------|   
E |--0---2----x---5---------|

Don't make me feel like you, don't make me feel like you
Like you. Like you.
comments
We did not receive enough feedback on this tab! Please rate:
print report bad tab
1 2 3 4 5
I want to post or [tab]
guest
You may want to rate the tab now too:
select rating
Please do not post tabs as comments. Select "correction" instead!