Oops, an error
Loading. Please wait.

At Last The King tab

1,393 views 9 this week
2 commentsread comments
1 2 3 4 5
x 4
add to favorites
×
Save as Personal and add changes to this tab that will be seen only by you. Learn more ›
×
You can save this tab as Personal to edit and correct it or add notes. All changes will be seen only by you. Learn more »
launch autoscroll
font size
0
reset
how to read this tab
guitar tuner
edit
Autoscroll
slow
fast
+/-
esc
set tempo
stop
[Intro] 
e|------------0-0-0-----------------------------------------------------------|
B|-----1---------------------------------1------------------------------------|
G|---2---2---0--------0-----0-------0-0h2-------------------------------------| x2
D|----------------------0h2---2---3-------------------------------------------|
A|-0-------2--------3---------------------------------------------------------|
E|------------------------------1---------------------------------------------|

[Verse]
e|---------------------------------------------------------------------------|
B|-----1-----1-----1-----------1-------1-----1------1------------------------|
G|---2-----0-----0-------0-0h2---2---2-----0------0-------0-0h2--------------|
D|---------------------3--------------------------------3--------------------|
A|-0-----2-----3-------------------0-----2------3----------------------------|
E|-------------------1--------------------------------1----------------------|

[Pre-Chorus]
e|----------------------------------------------------------------------------------|
B|-----1-------1-------1-------1-------1-------1-------1-------1---1-1-1-1-1-1-1-1--|
G|---2---2---0---0---0---0---2---2---2---2---0---0---0---0---2---2-2-2-2-2-2-2-2-2--|
D|-----------------------------------------------------------------3-3-3-3-3-3-3-3--|
A|---------2-------3-----------------------2-------3---------------3-3-3-3-3-3-3-3--|
E|-1-----------------------1-------1-----------------------1-------1-1-1-1-1-1-1-1--|

[Chorus] (strum)
Am           G/B             C   F
In the dark, in the shadows, light has come
Am           G/B             C   F
In the quiet, in the dead of night
        F                G             C G/B Am
"Glory, glory," sang the angels in the highest
   F         G
At last, the King has arrived

[Interlude] 
e|------------0-0-0-----------------------------------------------------------|
B|-----1---------------------------------1------------------------------------|
G|---2---2---0--------0-----0-------0-0h2-------------------------------------| 
D|----------------------0h2---2---3-------------------------------------------| x2
A|-0-------2--------3---------------------------------------------------------|
E|------------------------------1---------------------------------------------|

[Verse 2]
e|---------------------------------------------------------------------------|
B|-----1-----1-----1-----------1-------1-----1------1-1----------------------|
G|---2-----0-----0-------0-0h2---2---2-----0------0---2----------------------|
D|---------------------3------------------------------3----------------------|
A|-0-----2-----3-------------------0-----2------3-----3----------------------|
E|-------------------1--------------------------------1----------------------|

[Pre-Chorus]
e|---------------------------------------------------------------------------|
B|-----1-------1-------1-------1-------1-------1---1-1-----------------------|
G|---2---2---0---0---0---0---2---2---2---2---0---0-0-2-----------------------|
D|-------------------------------------------------2-3-----------------------|
A|---------2-------3-----------------------2-------3-3-----------------------|
E|-1-----------------------1-------1-----------------1-----------------------|

[Chorus] (strum)
Am           G/B             C   F
In the dark, in the shadows, light has come
Am           G/B             C   F
In the quiet, in the dead of night
        F                G             C G/B Am
"Glory, glory," sang the angels in the highest
   F         G
At last, the King 

[Bridge]
Dm         G         C    F
Is born to us to overcome exile
Dm      G             C  F
Born to us the virgin son this child
F       G       C/E      F
Born to give His life for us
F          G                     
Good news, good news, so glorious

[Chorus] (strum)
C           G/B            Am     F      
In the dark, in the shadows, light has come
C          G/B               Am  F
In the quiet, in the dead of night
        F                G             C G/B Am
"Glory, glory," sang the angels in the highest
   F         G
At last, the King has arrived

[Outro]
e|-------------------------------------------0-0-0---------------------------|
B|------------------------------------1--------------------------------------|
G|---------------0--------------0-2-2--2---0--------0-----0------0-0h2-------|
D|---2p0-----0h2---2---------0h2----------------------0h2---2--3-------------|
A|-------3p2-----------3-2h3------0------2---------3-------------------------|
E|-1-----------------1----------------------------------------1--------------|

************************************

| h  Hammer-on
| p  Pull-off

************************************

            
            
Suggest correction
Creating personal tab
Creating personal tab
You can edit any tab online and save it as your Personal.

You can edit, replace or remove any tab part or add personal notes – all changes will be seen only by you.

Personal tabs can be accessed anytime from any device, even offline.
Learn more »
comments
print report bad tab
2 comments total.
0 reply
hughes.a.joseph 10 Aug 09, 2016 08:02 AM

AMAZING TAB!!! I have been looking for this song for so long, and I couldn't have asked for anything more accurate.

0 reply
Technical_Cory 73 Oct 24, 2016 10:45 PM

I'm going to attempt to transpose this into the key of G.

Wish me luck! Ha

guest
You may want to rate the tab now too:
select rating
Wanna post a correction for this tab? Suggest correction