Oops, an error
Loading. Please wait.

Ghost Of A King Tab

139 views 12 this week
no commentswrite comment
1 2 3 4 5
1 last vote to show rating
add to favorites
launch autoscroll
font size
0
reset
how to read this tab
guitar tuner
Autoscroll
slow
fast
+/-
esc
set tempo
stop
Help us to improve Ultimate-Guitar.com Take our survey!
×
Author
Difficulty
Capo
intermediate
1st fret
[Intro]

e|----------------|---------------|---------------|--------------------------|
B|-----1-----1----|----1-----1----|----1-----1----|----1-----1---------------|
G|---2-----2-----2|--2-----2-----2|--2-----2-----2|--2-----2-----2-----------|
D|-------2-----2--|3-----3-----3--|0-----0-----0--|--------------------------|
A|-0--------------|---------------|---------------|3-----2-----0-------------|
E|----------------|---------------|---------------|--------------------------|

e|---------0------|------0------|--------0------|----------------------------|
B|-----1-------1--|----1-----1--|----1-------1--|----1-----1-----------------|
G|---2---2---2---2|--2-----2---2|--2---2---2---2|--2-----2-----2-------------|
D|----------------|3------------|0--------------|----------------------------|
A|-0--------------|-------------|---------------|3-----2-----0---------------|
E|----------------|-------------|---------------|----------------------------|


[Verse]

e|----------------|---------------|---------------|--------------------------|
B|-----1-----1----|----1-----1----|----1-----1----|----1-----1---------------|
G|---2-----2-----2|--2-----2-----2|--2-----2-----2|--2-----2-----2-----------|
D|-------2-----2--|3-----3-----3--|0-----0-----0--|--------------------------| x4
A|-0--------------|---------------|---------------|3-----2-----0-------------|
E|----------------|---------------|---------------|--------------------------|

[Prechorus]

e|---------------|--------------|---------------3---------------------------|
B|---------------|--------------|---------0h1-------------------------------|
G|---------------|--------------|-------------0-----------------------------|
D|--3-----3-----3|--3-----3----3|--0----------------------------------------|
A|----3-----3----|----3-----3---|----0--------------------------------------|
E|-1----1-----1--|1-----1-----1-|3-----3------------------------------------|

[Chorus]

e|----|----|-3--|----|----|-3--|----|----|-3---------------------------------|
B|-1--|-1--|-0--|-1--|-1--|-0--|-1--|-1--|-0---------------------------------|
G|-2--|-2--|-0--|-2--|-2--|-0--|-2--|-2--|-0---------------------------------|
D|-2--|-3--|-0--|-2--|-3--|-0--|-2--|-3--|-0---------------------------------|
A|-0--|-3--|-x--|-0--|-3--|-x--|-0--|-3--|-x---------------------------------|
E|----|-1--|-3--|----|-1--|-3--|----|-1--|-3---------------------------------|

[Interlude]

e|----------------|---------------|---------------|--------------------------|
B|-----1-----1----|----1-----1----|----1-----1----|----1-----1---------------|
G|---2-----2-----2|--2-----2-----2|--2-----2-----2|--2-----2-----2-----------|
D|-------2-----2--|3-----3-----3--|0-----0-----0--|--------------------------|
A|-0--------------|---------------|---------------|3-----2-----0-------------|
E|----------------|---------------|---------------|--------------------------|

e|---------0------|------0------|--------0---------------------|
B|-----1-------1--|----1-----1--|----1-------1-----------------|
G|---2---2---2---2|--2-----2---2|--2---2---2---2---------------|
D|----------------|3------------|0-----------------------------|
A|-0--------------|-------------|------------------------------|
E|----------------|-------------|------------------------------|

[Verse 2]

This verse has more instrumentation than verse 1. 
You can choose between picking the same notes as verse 1 or strumming Am, Fmaj7, and Dm7.
Whichever sound you like better.

e|----------------|---------------|---------------|--------------------------|
B|-----1-----1----|----1-----1----|----1-----1----|----1-----1---------------|
G|---2-----2-----2|--2-----2-----2|--2-----2-----2|--2-----2-----2-----------|
D|-------2-----2--|3-----3-----3--|0-----0-----0--|--------------------------| x4
A|-0--------------|---------------|---------------|3-----2-----0-------------|
E|----------------|---------------|---------------|--------------------------|

[Prechorus]

e|---------------|--------------|---------------3---------------------------|
B|---------------|--------------|---------0h1-------------------------------|
G|---------------|--------------|-------------0-----------------------------|
D|--3-----3-----3|--3-----3----3|--0----------------------------------------|
A|----3-----3----|----3-----3---|----0--------------------------------------|
E|-1----1-----1--|1-----1-----1-|3-----3------------------------------------|

[Chorus]

e|----|----|-3--|----|----|-3--|----|----|-3-|---|---|-3---------------------|
B|-1--|-1--|-0--|-1--|-1--|-0--|-1--|-1--|-0-|-1-|-1-|-0---------------------|
G|-2--|-2--|-0--|-2--|-2--|-0--|-2--|-2--|-0-|-2-|-3-|-0---------------------|
D|-2--|-3--|-0--|-2--|-3--|-0--|-2--|-3--|-0-|-2-|-3-|-0---------------------|
A|-0--|-3--|-x--|-0--|-3--|-x--|-0--|-3--|-x-|-0-|-2-|-x---------------------|
E|----|-1--|-3--|----|-1--|-3--|----|-1--|-3-|---|-1-|-3---------------------|

[Bridge]

Optional: fingerpick this next part. I think this is what he plays on the track. 
Another option is lightly strumming Dm, F, C, G, Dm, F, Am, G

e|--5--5--5--5--5--5--5--5--|-------------------------------------------------|
B|---6--6--6--6--6--6--6--6-|-10----10----10----10----10----10----10----10----|
G|----7--7--7--7--7--7--7--7|---10----10----10---10-----10----10----10----10--|
D|--------------------------|-----10----10----10---10-----10----10----10----10|
A|-5------------------------|8------------------------------------------------|
E|--------------------------|-------------------------------------------------|

e|--3--3--3--3--3--3--3--3--|-3--3--3--3--3--3--3--3--------------------------|
B|---1--1--1--1--1--1--1--1-|--0--0--0--0--0--0--0--0-------------------------|
G|----0--0--0--0--0--0--0--0|---0--0--0--0--0--0--0--0------------------------|
D|--------------------------|-------------------------------------------------|
A|-3------------------------|-------------------------------------------------|
E|--------------------------|3------------------------------------------------|

e|--5--5--5--5--5--5--5--5--|-------------------------------------------------|
B|---6--6--6--6--6--6--6--6-|-10----10----10----10----10----10----10----10----|
G|----7--7--7--7--7--7--7--7|---10----10----10---10-----10----10----10----10--|
D|--------------------------|-----10----10----10---10-----10----10----10----10|
A|-5------------------------|8------------------------------------------------|
E|--------------------------|-------------------------------------------------|


e|--0--0--0--0--0--0--0--0--|-3--3--3--3--3--3--3--3--------------------------|
B|---1--1--1--1--1--1--1--1-|--0--0--0--0--0--0--0--0-------------------------|
G|----2--2--2--2--2--2--2--2|---0--0--0--0--0--0--0--0------------------------|
D|--------------------------|-------------------------------------------------|
A|-0------------------------|-------------------------------------------------|
E|--------------------------|3------------------------------------------------|

e|---------|-------------------------------------------------------------|
B|-1-1-----|---0-0-------------------------------------------------------|
G|-2-2-----|---0-0-------------------------------------------------------|
D|-3-3-----|---0-0-------------------------------------------------------|
A|-3-3-----|---x-x-------------------------------------------------------|
E|-1-1-----|---3-3-------------------------------------------------------|

Strum the last chorus (palm mute the first time through):
         Am  F  G                                       
Where no chariot can take you                             
    Am       F            G                              
Where the river meets the sand                          
Am              F             G                         
There is water there that can quench your thirsty bones 
             Am   F    G
And make you well, well
         Am  F  G                                       
Where no chariot can take you                             
    Am       F            G                              
Where the river meets the sand                          
Am              F             G                         
There is water there that can quench your thirsty bones and make you well

[Outro]

e|----------------|---------------|---------------|--------------------------|
B|-----1-----1----|----1-----1----|----1-----1----|----1-----1---------------|
G|---2-----2-----2|--2-----2-----2|--2-----2-----2|--2-----2-----2-----------|
D|-------2-----2--|3-----3-----3--|0-----0-----0--|--------------------------|
A|-0--------------|---------------|---------------|3-----2-----0---0---------|
E|----------------|---------------|---------------|--------------------------|

************************************
| x   Dead note
| h   Hammer On
************************************
Suggest correction
Give kudos to tab author, rate the tab!
1 2 3 4 5
comments
print report bad tab
guest
You may want to rate the tab now too:
select rating
Wanna post a correction for this tab? Suggest correction