Oops, an error
Loading. Please wait.

Every Knee Shall Bow Bass Tab

645 views 1 this week
no commentswrite comment
1 2 3 4 5
please rate
add to favorites
launch autoscroll
font size
0
reset
guitar tuner
Tab Pro tools
  • play this tab
  • loop segment
  • change instrument
  • show fretboard
  • metronome
×
Best way to learn
"Every Knee Shall Bow"
Autoscroll
slow
fast
+/-
esc
set tempo
stop
Contributor
Difficulty
Tuning
novice
A# F A# D# G C
-------------------------------------------------------------------------------
Every Knee Shall Bow – The Great Commission
-------------------------------------------------------------------------------

Tabbed by: Jared

Tuning: Drop A#

D#|---------------------------------------------------------------------------|
A#|---------------------------------------------------------------------------|
F |----------------------------4-3-1------------------------------------------|
A#|-0-0-00--00-00-0-0-00--00-1------------------------------------------------|
X3

D#|------------------------------------------------------------------------------|
A#|------------------------------------------------------------------------------|
F |----------------------------4-3-1---------------------------------------------|
A#|-0-0-00--00-00-0-0-00--00-1-------0-------------------------------------------|

D#|---------------------------------------------------------------------------|
A#|---------------------------------------------------------------------------|
F |---------------------------------------------------------------------------|
A#|-0--------------143-0143---------------------------------------------------|


D#|---------------------------------------------------------------------------|
A#|---------------------------------------------------------------------------|
F |---------------------------------------------------------------------------|
A#|-0-000-000-000-0143-0143---------------------------------------------------|
X4

D#|---------------------------------------------------------------------------|
A#|---------------------------------------------------------------------------|
F |---------------------------------------------------------------------------|
A#|-0000000000000-0143-0143---------------------------------------------------|
X4

D#|---------------------------------------------------------------------------|
A#|---------------------------------------------------------------------------|
F |---------------------------------------------------------------------------|
A#|-1-0----1-0---1-0-----0----------------------------------------------------|

D#|---------------------------------------------------------------------------|
A#|---------------------------------------------------------------------------|
F |---------------------------------------------------------------------------|
A#|-0-000-000-000-0143-0143---------------------------------------------------|
X4

D#|---------------------------------------------------------------------------|
A#|---------------------------------------------------------------------------|
F |---------------------------------------------------------------------------|
A#|-0000000000000-0143-0143---------------------------------------------------|
X4

D#|---------------------------------------------------------------------------|
A#|---------------------------------------------------------------------------|
F |-----------------------4-3-1-------------------------4-3-1-----------------|
A#|-0-0-00~------0-0-00~-1--------0-0-00~------0-0-00-------------------------|


D#|---------------------------------------------------------------------------|
A#|---------------------------------------------------------------------------|
F |----------------------------4-3-1------------------------------------------|
A#|-0-0-00--00-00-0-0-00--00-1------------------------------------------------|
X2

D#|---------------------------------------------------------------------------|
A#|---------------------------------------------------------------------------|
F |-----------------------4-3-1-----------------------------------------------|
A#|-0-0-00~------0-0-00~-1----------------------------------------------------|
X2

And end on
D#|---------------------------------------------------------------------------|
A#|---------------------------------------------------------------------------|
F |---------------------------------------------------------------------------|
A#|-0-------------------------------------------------------------------------|

Thanks for supporting this band!
Please rate and comment
God bless!

************************************

| /   slide up
| \   slide down
| h   hammer-on
| p   pull-off
| ~   vibrato
| +   harmonic
| x   Mute note
| b   Bend
| pb  Pre-bend
| br  Bend release
| pbr Pre-bend release
| brb Bend release bend

************************************
comments
We did not receive enough feedback on this tab! Please rate:
print report bad tab
1 2 3 4 5
I want to post or [tab]
guest
You may want to rate the tab now too:
select rating
Please do not post tabs as comments. Select "correction" instead!