Oops, an error
Loading. Please wait.

Every Knee Shall Bow Tab

1,821 views 1 this week
no commentswrite comment
1 2 3 4 5
3 more votes to show rating
add to favorites
launch autoscroll
font size
0
reset
how to read this tab
guitar tuner
Autoscroll
slow
fast
+/-
esc
set tempo
stop
Help us to improve Ultimate-Guitar.com Take our survey!
×
Author
Difficulty
Tuning
novice
A# F A# D# G C
-------------------------------------------------------------------------------
Every Knee Shall Bow – The Great Commission
-------------------------------------------------------------------------------

Tabbed by: Jared

Tuning: Drop A#

C |---------------------------------------------------------------------------|
G |---------------------------------------------------------------------------|
D#|---------------------------------------------------------------------------|
A#|---------------------------------------------------------------------------|
F |-0-0-00--00-00-0-0-00--00---4-3-1------------------------------------------|
A#|-0-0-00--00-00-0-0-00--00-1------------------------------------------------|
X3

C |---------------------------------------------------------------------------|
G |---------------------------------------------------------------------------|
D#|---------------------------------------------------------------------------|
A#|---------------------------------------------------------------------------|
F |-0-0-00--00-00-0-0-00--00---4-3-1-0----------------------------------------|
A#|-0-0-00--00-00-0-0-00--00-1-------0----------------------------------------|

C |---------------------------------------------------------------------------|
G |---------------------------------------------------------------------------|
D#|---------------------------------------------------------------------------|
A#|---------------------------------------------------------------------------|
F |-0---0---0---0-------------------------------------------------------------|
A#|-0-000-000-000-0143-0143---------------------------------------------------|

Just play around with your strumming pattern for this.
Play it 6 times then,

C |---------------------------------------------------------------------------|
G |---------------------------------------------------------------------------|
D#|---------------------------------------------------------------------------|
A#|-0---0---0---0-------------------------------------------------------------|
F |-0000000000000-0143-0143---------------------------------------------------|
A#|-0000000000000-0143-0143---------------------------------------------------|
X4

Guitar 1 plays an open A# from 1:12-1:25

Guitar 2 plays with drums:
C |---------------------------------------------------------------------------|
G |---------------------------------------------------------------------------|
D#|---------------------------------------------------------------------------|
A#|-1-------1----1----0-------------------------------------------------------|
F |-10------10---10---0-------------------------------------------------------|
A#|-10---43110---10---0-------------------------------------------------------|

C |---------------------------------------------------------------------------|
G |---------------------------------------------------------------------------|
D#|---------------------------------------------------------------------------|
A#|---------------------------------------------------------------------------|
F |-0---0---0---0-------------------------------------------------------------|
A#|-0-000-000-000-0143-0143---------------------------------------------------|
X4

C |---------------------------------------------------------------------------|
G |---------------------------------------------------------------------------|
D#|---------------------------------------------------------------------------|
A#|-0---0---0---0-------------------------------------------------------------|
F |-0000000000000-0143-0143---------------------------------------------------|
A#|-0000000000000-0143-0143---------------------------------------------------|
X4

C |---------------------------------------------------------------------------|
G |---------------------------------------------------------------------------|
D#|---------------------------------------------------------------------------|
A#|---------------------------------------------------------------------------|
F |-0-0-00~------0-0-00~--4-3-1---0-0-00~------0-0-00---4-3-1-----------------|
A#|-0-0-00~-0/12\0-0-00~-1--------0-0-00~-0/12\0-0-00-------------------------|


C |---------------------------------------------------------------------------|
G |---------------------------------------------------------------------------|
D#|---------------------------------------------------------------------------|
A#|---------------------------------------------------------------------------|
F |-0-0-00--00-00-0-0-00--00---4-3-1------------------------------------------|
A#|-0-0-00--00-00-0-0-00--00-1------------------------------------------------|
X2

C |---------------------------------------------------------------------------|
G |---------------------------------------------------------------------------|
D#|---------------------------------------------------------------------------|
A#|---------------------------------------------------------------------------|
F |-0-0-00~------0-0-00~--4-3-1-----------------------------------------------|
A#|-0-0-00~-0/12\0-0-00~-1----------------------------------------------------|
X2

And end on
C |---------------------------------------------------------------------------|
G |---------------------------------------------------------------------------|
D#|---------------------------------------------------------------------------|
A#|-0-------------------------------------------------------------------------|
F |-0-------------------------------------------------------------------------|
A#|-0-------------------------------------------------------------------------|

Please rate and comment
God bless! 

************************************

| /   slide up
| \   slide down
| h   hammer-on
| p   pull-off
| ~   vibrato
| +   harmonic
| x   Mute note
| b   Bend
| pb  Pre-bend
| br  Bend release
| pbr Pre-bend release
| brb Bend release bend

************************************
Suggest correction
Give kudos to tab author, rate the tab!
1 2 3 4 5
comments
print report bad tab
guest
You may want to rate the tab now too:
select rating
Wanna post a correction for this tab? Suggest correction