Oops, an error
Loading. Please wait.

Funeral March Tab

3,862 views 1 this week
no commentswrite comment
1 2 3 4 5
please rate
add to favorites
launch autoscroll
font size
0
reset
how to read this tab
guitar tuner
Autoscroll
slow
fast
+/-
esc
set tempo
stop
Help us to improve Ultimate-Guitar.com Take our survey!
×
Funeral March - The Great Kat

e|--------------------|
b|--------------------|
g|--------------------|
d|--3--6--5--3--2--3--|
a|--3--6--5--3--2--3--|
D|--3--6--5--3--2--3--|

e|---------------------|
b|---------------------|
g|---------------------|
d|--6--10--8--6--5--6--|
a|--6--10--8--6--5--6--|
D|--6--10--8--6--5--6--|

e|------------------|
b|------------------|
g|------------------|
d|--15--13--11--10--|
a|--15--13--11--10--|
D|--15--13--11--10--|

e|-------------------------|
b|-------------------------|
g|-------------------------|
d|----1--4--3--1--0--1-----|
a|----1--4--3--1--0--1-----|
D|----1--4--3--1--0--1-----|
 |                         |
e|-------------------------|
b|------10--9--------------|
g|--11---------11--10--11--|
d|-------------------------|
a|-------------------------|
D|-------------------------|
Suggest correction
Give kudos to tab author, rate the tab!
1 2 3 4 5
comments
print report bad tab
guest
You may want to rate the tab now too:
select rating
Please do not post tabs as comments. Select "correction" instead!