Oops, an error
Loading. Please wait.

Platonic tab

110 views 1 this week
no commentswrite comment
1 2 3 4 5
3 more votes to show rating
add to favorites
×
Save as Personal and add changes to this tab that will be seen only by you. Learn more ›
×
You can save this tab as Personal to edit and correct it or add notes. All changes will be seen only by you. Learn more »
launch autoscroll
font size
0
reset
how to read this tab
guitar tuner
edit
Autoscroll
slow
fast
+/-
esc
set tempo
stop
Author
Difficulty
The Great Wilderness

CANCION: Platonic

En la mayoria de las partes pude sacar la guitarra 1 y en otras la 2
pero apenas las saque actualizo el tab. Y que lo disfruten.

Intro

Guitarra 1
|---------------------------------------------------|
|---------------------------------------------------|
|-----11---11---11----7---7---7---------------------|  
|--9----9-----9-----5---5---5-----------------------|
|---------------------------------------------------|   Estas dos partes  
|---------------------------------------------------|   se repiten 2 veces.

|---------------------------------------------------|
|---------------------------------------------------|
|---------------------------------------------------|
|-9-9---9-9-9---9-9-9---9-9-9-9---------------------|
|---------------------------------------------------|
|---------------------------------------------------|

Despues de repetir lo de arriba 2 veces esta se repite x3
|---------------------------------------------------|
|---------------------------------------------------|
|-----11---11---11----7---7---7---------------------|  
|--9----9-----9-----5---5---5-----------------------|
|---------------------------------------------------|  
|---------------------------------------------------|  
 
Luego volvemos a esta parte
|---------------------------------------------------|
|---------------------------------------------------|
|---------------------------------------------------|
|-9-9---9-9-9---9-9-9---9-9-9-9---------------------|
|---------------------------------------------------|
|---------------------------------------------------|


Versos 

|---------------------------------------------------|
|---------------------------------------------------|
|-----11---11---11----7---7---7---------------------|  
|--9----9-----9-----5---5---5-----------------------|
|---------------------------------------------------|    
|---------------------------------------------------|   


Pre-Coro

Guitarra 1
|---------------------------------------------------|    
|---------------------------------------------------|  
|---------7------------------7----------------------|
|--2------5---------2--------5----------------------|    
|--2----------------2-------------------------------|  
|--0----------------0-------------------------------|


Coro

Guitarra 1
Aqui solo se usan estos dos acordes.

   B5   G5
|---------------------------------------------------|
|---------------------------------------------------|
|---------------------------------------------------|
|--9----5-------------------------------------------|
|--9----5-------------------------------------------|
|--7----3-------------------------------------------|

Guitarra 2

|---------------------------------------------------|
|--3-3-3--5-5-5-5-5--3-3-3--5-5-5-5-5---------------|
|---------------------------------------------------|
|---------------------------------------------------|
|---------------------------------------------------|
|---------------------------------------------------|

|---------------------------------------------------|
|---------------------------------------------------| 
|-5/7-7-7-7-7--5-5-5--7-7-7-7-7-5-5-5---------------|
|---------------------------------------------------|
|---------------------------------------------------|
|---------------------------------------------------|


Solo

|---------------------------------------------------|
|---------------------------------------------------|
|-11-11-11-11-11---7-7-7-7--9v--7-7-7-7--9v---------|
|---------------------------------------------------|
|---------------------------------------------------|
|---------------------------------------------------|  

|---------------------------------------------------|
|---------------------------------------------------|
|-11-11-11-11-11-11-11--14-14-14-14-14--7-7-7-7---9v|
|---------------------------------------------------|
|---------------------------------------------------|
|---------------------------------------------------|

|---------------------------------------------------|
|---------------------------------------------------|
|-7-7-7-7-9-----------------------------------------|
|-----------9-9-9-9---------------------------------|
|---------------------------------------------------|
|---------------------------------------------------|


Parte Final

Guitarra 2

|---------------------------------------------------|
|--------------------8-8-8-7-7-7--------------------|
|-4-4-4-4h7p4-4-4-4---------------------------------|
|---------------------------------------------------|
|---------------------------------------------------|
|---------------------------------------------------|

http://thegreatwilderness.bandcamp.com/

            
            
Suggest correction
Creating personal tab
Creating personal tab
You can edit any tab online and save it as your Personal.

You can edit, replace or remove any tab part or add personal notes – all changes will be seen only by you.

Personal tabs can be accessed anytime from any device, even offline.
Learn more »
Give kudos to tab author, rate the tab!
1 2 3 4 5
comments
print report bad tab
guest
You may want to rate the tab now too:
select rating
Wanna post a correction for this tab? Suggest correction