Oops, an error
Loading. Please wait.

Alone Tab

1,894 views 1 this week
no commentswrite comment
1 2 3 4 5
x 3
add to favorites
launch autoscroll
font size
0
reset
how to read this tab
guitar tuner
Autoscroll
slow
fast
+/-
esc
set tempo
stop
Help us to improve Ultimate-Guitar.com Take our survey!
×
Author
Difficulty
novice
The Green - Alone

Chorus/verse:    
     Am      G       Am      G       Am     G       Dm     G
e|---5--5----3--3----5--5----3--3----5--5---3--3----5--5---3--3-----| 
e|---5--5----3--3----5--5----3--3----5--5---3--3----6--6---3--3-----|
B|---5--5----4--4----5--5----4--4----5--5---4--4----7--7---4--4-----|
G|---7--7----5--5----7--7----5--5----7--7---5--5----7--7---5--5-----|
D|---7--7----5--5----7--7----5--5----7--7---5--5----5--6---5--5-----|
A|---5--5----3--3----5--5----3--3----5--5---3--3----5--5---3--3-----|

The Dm is only at the end of the verse, the chorus is all Am/G


Bass:

e|------------------------------------------------------|
B|------------------------------------------------------|
G|------------------------------------------------------|
D|------------------------------------------------------|
A|-----7-7----------------------------------------------|
E|---------5-5----0-0-3-3-0-0-3-3-----------------------|



Verse 1:
I know there's a place that we can go
To get away from my soul
And everything will be alright

The sun shines all o'er my face
Gives me the strength I need to face the world
And all I need to know is that I got you

Chorus:
I don't ever want to be alone
Take me away from the storm
Keep me safe from harm
And I'll be there, and I'll be there

Verse 2:
Money man come and take away the land
And then he flip, then he build on top the sand
And when he feed, it's only his immediate fam
I just don't understand

Warrior man he pull the roots from the ground
And then he give to the entire town
And then he feel all the love is going around
The love is going around, Whoah

Chorus:
I don't ever want to be alone
Take me away from the storm
Keep me safe from harm
And I'll be there, and I'll be there

Verse 3 (same as 1):
I know there's a place that we can go
To get away from my soul
And everything will be alright

The sun shines all o'er my face
Gives me the strength I need to face the world
And all I need to know is that I got you


Posted by Tim Lock

Email any corrections to: timlockk@yahoo.com
Suggest correction
Give kudos to tab author, rate the tab!
1 2 3 4 5
comments
print report bad tab
guest
You may want to rate the tab now too:
select rating
Wanna post a correction for this tab? Suggest correction