Oops, an error
Loading. Please wait.

There Is An End Bass Tab

3,284 views 1 this week
no commentswrite comment
1 2 3 4 5
excellent!
x 3
add to favorites
launch autoscroll
font size
0
reset
guitar tuner
Tab Pro tools
  • play this tab
  • loop segment
  • change instrument
  • show fretboard
  • metronome
×
Best way to learn
"There Is An End"
Autoscroll
slow
fast
+/-
esc
set tempo
stop
Contributor
---------------------------------------------------------------------------------------------
                  THERE IS AN END - The Greenhornes feat. Holly Golightly
                                          Bass Tabs
---------------------------------------------------------------------------------------------
Tabbed by: Leonard K.
Email: ohhleo@ymail.com

Tuning: EADG


INTRO
G|--------------------------------|
D|4---24-24---24-24---24-24-2-----|
A|---4-------4-------4--------4-20|
E|--------------------------------|


VERSE 1
	Words disappear, words once so clear, Only echoes passing through the night
G|----------------------------------------------------------------|
D|----24-2-------24---42---------------------------------24-2---2-|
A|---4----4---24-----4---24---4-3-2---02-34---42-0---02-4-----4---|
E|2----------4---------------4-------2-------4----2---------------|

	The lines on my face your fingers once traced, Fading reflection of what was
G|----------------------------------------------------------------|
D|4---24-2-------24---42---------------------------------24-2---2-|
A|---4----4---24-----4---24---4-3-2---02-34---42-0---02-4-----4---|
E|-----------4---------------4-------2-------4----2---------------|


MIDTRO :P
G|--------------------------------|
D|4---24-24---24-24---24-24-2-----|
A|---4-------4-------4--------4-20|
E|--------------------------------|


VERSE 2
	Thoughts rearrange for millions I'm strange, All my skins drifting on the wind
G|----------------------------------------------------------------|
D|----24-2-------24---42---------------------------------24-2---2-|
A|---4----4---24-----4---24---4-3-2---02-34---42-0---02-4-----4---|
E|2----------4---------------4-------2-------4----2---------------|

	Spring brings the rain with winter comes pain, Every season has an end
G|----------------------------------------------------------------|
D|4---24-2-------24---42---------------------------------24-2-----|
A|---4----4---24-----4---24---4-3-2---02-34---42-0---02-4-----4-33|
E|-----------4---------------4-------2-------4----2---------------|


CHORUS
	I'll try to see through the skies, But the clouds were there locking up the sun, the sun
G|----------------------------------------------------------------|
D|---------------24--4--2-4-2-------------------------------0-2---|
A|2-2-02-02-2-024------4-4----4-3x2-2-02-02-2-023-4--4-44-2-------|
E|---2-------2-----------------------2-------2--------------------|


SOLO
G|----------------------------------------------------------------|
D|4---42---------24---42-------------0-2-4---------------24-2-----|
A|---4---24---24-----4---24-4-4-3-2-------4---42-0--0-2-4-----4-20|
E|---------------------------4---------------4----2---------------|


VERSE 3
	Thoughts rearrange for million I'm strange, All my skins drifting on the wind
G|----------------------------------------------------------------|
D|----24-2-------24---42---------------------------------24-2-----|
A|---4----4---24-----4---24---4-3-2---02-34---42-0---024------4-20|
E|2----------4---------------4-------2-------4----2---------------|

	Spring brings the rain, with winter comes pain, Every season has an end
G|----------------------------------------------------------------|
D|----24-2-------24---42---------------------------------24-2-----|
A|---4----4---24-----4---24---4-3-2---02-34---42-0--0-2-4-----4-20|
E|2----------4---------------4-------2-------4----2---------------|


OUTRO
	There's an end, there's an end, There's an end, there's an end
G|-------------------------------------------------------------------|
D|4---24-24---24-24---24-24---24-24---24-24---24-24---24-24-2--------|
A|---4-------4-------4-------4-------4-------4-------4--------42-0x--|
E|-------------------------------------------------------------------|

************************************
| x   Mute note
************************************
---------------------------------------------------------------------------------------------
comments
We did not receive enough feedback on this tab! Please rate:
print report bad tab
1 2 3 4 5
I want to post or [tab]
guest
You may want to rate the tab now too:
select rating
Please do not post tabs as comments. Select "correction" instead!