Oops, an error
Loading. Please wait.

Underestimator Bass Tab

672 views 1 this week
no commentswrite comment
1 2 3 4 5
2 more votes to show rating
add to favorites
launch autoscroll
font size
0
reset
guitar tuner
Autoscroll
slow
fast
+/-
esc
set tempo
stop
Help us to improve Ultimate-Guitar.com Take our survey!
×
Author
Difficulty
intermediate
Bass comes in when drums come in.
Verse
G|----------------|
D|----------------|
A|--------5--33---|
E|-5--88----------| Play x6

Chorus
G|-----------------|
D|-----------------|
A|-55--3----55--0--|
E|-----------------|

G|----------------|
D|----------------|
A|--------5--33---|
E|-5--88----------| Play x4

G|-----------------|
D|-----------------|
A|-55--3----55--0--|
E|-----------------|

G|----------------|
D|----------------|
A|----------7--55-|
E|-7--1010--------| x4

Guitar solo
G|-------------|------------|
D|-------------|------------|
A|-------------|-------5--3-|
E|-------------|-5--8-------| x4

Verse x4
Chorus x2

Oh yeah...    Oh oh...
G|----------|----------|
D|----------|----------|
A|----------|----------|
E|--------5-|--------5-| Repeat until end.

That's the entire song on the bass, hope it helps! Learned all by ear.

Suggest correction
Give kudos to tab author, rate the tab!
1 2 3 4 5
comments
print report bad tab
guest
You may want to rate the tab now too:
select rating
Wanna post a correction for this tab? Suggest correction