Oops, an error
Loading. Please wait.

Hands Down Acoustic tab

1,315 views 30 this week
no commentswrite comment
1 2 3 4 5
x 5
add to favorites
×
Save as Personal and add changes to this tab that will be seen only by you. Learn more ›
×
You can save this tab as Personal to edit and correct it or add notes. All changes will be seen only by you. Learn more »
launch autoscroll
font size
0
reset
how to read this tab
guitar tuner
edit
Autoscroll
slow
fast
+/-
esc
set tempo
stop
Author
Difficulty
Hands Down (Acoustic)
By: The Greeting Committee
Album: It's Not All That Bad
Tabbed by: Tristan De Leon
 
Live Dunkin Donuts Session - https://www.youtube.com/watch?v=DFpax5Tvxa8

The video helps a lot for finger placement and strum pattern!

[Intro]
e|---------------------------------------------------------------------------|
B|-------------12---------14----------16-------------------------------------|
G|------13---------13---------13----------13---------------------------------| x2
D|--14-----14---------14----------14----------14-----------------------------|
A|---------------------------------------------------------------------------|
E|---------------------------------------------------------------------------|

e|---------------------------------------------------------------------------|
B|------------12----------14----------12-------------------------------------|
G|------13--------13----------13----------13---------------------------------|
D|--11-----11---------11----------11----------11-----------------------------|
A|---------------------------------------------------------------------------|
E|---------------------------------------------------------------------------|

e|---------------------------------------------------------------------------|
B|-------------9---------12---------9----------------------------------------|
G|------9---------9----------9---------9-------------------------------------|
D|--11-----11--------11---------11--------11---------------------------------|
A|---------------------------------------------------------------------------|
E|---------------------------------------------------------------------------|

e|---------------------------------------------------------------------------|
B|---12--12--12--12--12----14--14--14----16--16--16--------------------------|
G|---13--13--13--13--13----13--13--13----13--13--13--------------------------| x2
D|---14--14--14--14--14----14--14--14----14--14--14--------------------------|
A|---------------------------------------------------------------------------|
E|---------------------------------------------------------------------------|

e|---------------------------------------------------------------------------|
B|---12--12--12--12--12----14--14--14----12--12--12--------------------------|
G|---13--13--13--13--13----13--13--13----13--13--13--------------------------| x2
D|---11--11--11--11--11----11--11--11----11--11--11--------------------------|
A|---------------------------------------------------------------------------|
E|---------------------------------------------------------------------------|

e|---------------------------------------------------------------------------|
B|---12--12--12--12--12----14--14--14----16--16--16--------------------------|
G|---13--13--13--13--13----13--13--13----13--13--13--------------------------| x2
D|---14--14--14--14--14----14--14--14----14--14--14--------------------------|
A|---------------------------------------------------------------------------|
E|---------------------------------------------------------------------------|

e|---------------------------------------------------------------------------|
B|---12--12--12--12--12----14--14--14----12--12--12--------------------------|
G|---13--13--13--13--13----13--13--13----13--13--13--------------------------| x2
D|---11--11--11--11--11----11--11--11----11--11--11--------------------------|
A|---------------------------------------------------------------------------|
E|---------------------------------------------------------------------------|

[Verse 1]
e|---------------------------------------------------------------------------|
B|---12--12--12--12--12----14--14--12----14--14--12--------------------------|
G|---13--13--13--13--13----13--13--13----13--13--13--------------------------| 
D|---14--14--14--14--14----14--14--14----14--14--14--------------------------|
A|---------------------------------------------------------------------------|
E|---------------------------------------------------------------------------|
    Wrapped around your finger......

e|---------------------------------------------------------------------------|
B|---12--12----14--14--12--14--12--12--14--12--12----------------------------|
G|---13--13----13--13--13--13--13--13--13--13--13----------------------------|
D|---14--14----14--14--14--14--14--14--14--14--14----------------------------|
A|---------------------------------------------------------------------------|
E|---------------------------------------------------------------------------|
                        ...I'd spend...
e|---------------------------------------------------------------------------|
B|---12--12--12--12--12----14--14--12----14--14--12--------------------------|
G|---13--13--13--13--13----13--13--13----13--13--13--------------------------| 
D|---11--11--11--11--11----11--11--11----11--11--11--------------------------|
A|---------------------------------------------------------------------------|
E|---------------------------------------------------------------------------| 
   ...my whole life....

e|---5--5--5--5--5--5----7--7--7--7--7--7------------------------------------|
B|---5--5--5--5--5--5----7--7--7--7--7--7------------------------------------|
G|---6--6--6--6--6--6----8--8--8--8--8--8------------------------------------|
D|---7--7--7--7--7--7----9--9--9--9--9--9------------------------------------|
A|---7--7--7--7--7--7----9--9--9--9--9--9------------------------------------|
E|---5--5--5--5--5--5----7--7--7--7--7--7------------------------------------|
    Tied in ways to have you...

e|---------------------------------------------------------------------------|
B|---12--12--12--12--12----14--14--12----14--14--12--------------------------|
G|---13--13--13--13--13----13--13--13----13--13--13--------------------------| 
D|---14--14--14--14--14----14--14--14----14--14--14--------------------------|
A|---------------------------------------------------------------------------|
E|---------------------------------------------------------------------------|
    And everything was alright...

e|---------------------------------------------------------------------------|
B|---12--12----14--14--12--14--12--12--14--12--12----------------------------|
G|---13--13----13--13--13--13--13--13--13--13--13----------------------------|
D|---14--14----14--14--14--14--14--14--14--14--14----------------------------|
A|---------------------------------------------------------------------------|
E|---------------------------------------------------------------------------|

e|---------------------------------------------------------------------------|
B|---12--12--12--12--12----14--14--12----14--14--12--------------------------|
G|---13--13--13--13--13----13--13--13----13--13--13--------------------------| 
D|---11--11--11--11--11----11--11--11----11--11--11--------------------------|
A|---------------------------------------------------------------------------|
E|---------------------------------------------------------------------------| 
    Almost, but not quite...

e|---5--5--5--5--5--5----7--7--7--7--7--7------------------------------------|
B|---5--5--5--5--5--5----7--7--7--7--7--7------------------------------------|
G|---6--6--6--6--6--6----8--8--8--8--8--8------------------------------------|
D|---7--7--7--7--7--7----9--9--9--9--9--9------------------------------------|
A|---7--7--7--7--7--7----9--9--9--9--9--9------------------------------------|
E|---5--5--5--5--5--5----7--7--7--7--7--7------------------------------------|
    I'd be tangled up without you...

e|---------------------------------------------------------------------------|
B|---12--12--12--12--12----14--14--12----14--14--12--------------------------|
G|---13--13--13--13--13----13--13--13----13--13--13--------------------------| 
D|---14--14--14--14--14----14--14--14----14--14--14--------------------------|
A|---------------------------------------------------------------------------|
E|---------------------------------------------------------------------------|
    Oh, a mess...

e|---------------------------------------------------------------------------|
B|---12--12----14--14--12--14--12--12--14--12--12----------------------------|
G|---13--13----13--13--13--13--13--13--13--13--13----------------------------|
D|---14--14----14--14--14--14--14--14--14--14--14----------------------------|
A|---------------------------------------------------------------------------|
E|---------------------------------------------------------------------------|
                     Like a nightmare...

e|---------------------------------------------------------------------------|
B|---12--12--12--12--12----14--14--12----14--14--12--------------------------|
G|---13--13--13--13--13----13--13--13----13--13--13--------------------------| 
D|---11--11--11--11--11----11--11--11----11--11--11--------------------------|
A|---------------------------------------------------------------------------|
E|---------------------------------------------------------------------------| 
    ...and an empty bed...

e|---5--------------5/7------------------------------------------------------|
B|---5--------------5/7------------------------------------------------------|
G|---6--------------6/8------------------------------------------------------|
D|---7--------------7/9------------------------------------------------------|
A|---7--------------7/9------------------------------------------------------|
E|---5--------------5/7------------------------------------------------------|
    But with you it's like i'm coming home again...hey...

[Chorus]
e|---------------------------------------------------------------------------|
B|---12--12--12--12--12----14--14--14----16--16--16--------------------------|
G|---13--13--13--13--13----13--13--13----13--13--13--------------------------| x2
D|---14--14--14--14--14----14--14--14----14--14--14--------------------------|
A|---------------------------------------------------------------------------|
E|---------------------------------------------------------------------------|
    Baby, you're hands down the...

e|---------------------------------------------------------------------------|
B|---12--12--12--12--12----14--14--14----12--12--12--------------------------|
G|---13--13--13--13--13----13--13--13----13--13--13--------------------------| x2
D|---11--11--11--11--11----11--11--11----11--11--11--------------------------|
A|---------------------------------------------------------------------------|
E|---------------------------------------------------------------------------|
    ...best thing about me...

e|---------------------------------------------------------------------------|
B|---12--12--12--12--12----14--14--14----16--16--16--------------------------|
G|---13--13--13--13--13----13--13--13----13--13--13--------------------------| x2
D|---14--14--14--14--14----14--14--14----14--14--14--------------------------|
A|---------------------------------------------------------------------------|
E|---------------------------------------------------------------------------|
    And baby, I don't know where...

e|---------------------------------------------------------------------------|
B|---12--12--12--12--12----14--14--14----12--12--12--------------------------|
G|---13--13--13--13--13----13--13--13----13--13--13--------------------------| 
D|---11--11--11--11--11----11--11--11----11--11--11--------------------------|
A|---------------------------------------------------------------------------|
E|---------------------------------------------------------------------------|
    ...I was...

e|---5--5--5--5--5--5----7--7--7--7--7--7------------------------------------|
B|---5--5--5--5--5--5----7--7--7--7--7--7------------------------------------|
G|---6--6--6--6--6--6----8--8--8--8--8--8------------------------------------|
D|---7--7--7--7--7--7----9--9--9--9--9--9------------------------------------|
A|---7--7--7--7--7--7----9--9--9--9--9--9------------------------------------|
E|---5--5--5--5--5--5----7--7--7--7--7--7------------------------------------|
    But i'm so glad you found me...

[Fill]
e|---------------------------------------------------------------------------|
B|---12--12--12--12--12----14--14--14----16--16--16--------------------------|
G|---13--13--13--13--13----13--13--13----13--13--13--------------------------| x2
D|---14--14--14--14--14----14--14--14----14--14--14--------------------------|
A|---------------------------------------------------------------------------|
E|---------------------------------------------------------------------------|
 
e|---------------------------------------------------------------------------|
B|---12--12--12--12--12----14--14--14----12--12--12--------------------------|
G|---13--13--13--13--13----13--13--13----13--13--13--------------------------| x2
D|---11--11--11--11--11----11--11--11----11--11--11--------------------------|
A|---------------------------------------------------------------------------|
E|---------------------------------------------------------------------------|
    ..oooooooooo.....

[Verse 2]
e|---------------------------------------------------------------------------|
B|---12--12--12--12--12----14--14--12----14--14--12--------------------------|
G|---13--13--13--13--13----13--13--13----13--13--13--------------------------| 
D|---14--14--14--14--14----14--14--14----14--14--14--------------------------|
A|---------------------------------------------------------------------------|
E|---------------------------------------------------------------------------|
    Wrapped inside your sheets...

e|---------------------------------------------------------------------------|
B|---12--12----14--14--12--14--12--12--14--12--12----------------------------|
G|---13--13----13--13--13--13--13--13--13--13--13----------------------------|
D|---14--14----14--14--14--14--14--14--14--14--14----------------------------|
A|---------------------------------------------------------------------------|
E|---------------------------------------------------------------------------|

e|---------------------------------------------------------------------------|
B|---12--12--12--12--12----14--14--12----14--14--12--------------------------|
G|---13--13--13--13--13----13--13--13----13--13--13--------------------------| 
D|---11--11--11--11--11----11--11--11----11--11--11--------------------------|
A|---------------------------------------------------------------------------|
E|---------------------------------------------------------------------------| 
    Well, I look up to you...

e|---5--5--5--5--5--5----7--7--7--7--7--7------------------------------------|
B|---5--5--5--5--5--5----7--7--7--7--7--7------------------------------------|
G|---6--6--6--6--6--6----8--8--8--8--8--8------------------------------------|
D|---7--7--7--7--7--7----9--9--9--9--9--9------------------------------------|
A|---7--7--7--7--7--7----9--9--9--9--9--9------------------------------------|
E|---5--5--5--5--5--5----7--7--7--7--7--7------------------------------------|
    Because you look after me...

e|---------------------------------------------------------------------------|
B|---12--12--12--12--12----14--14--12----14--14--12--------------------------|
G|---13--13--13--13--13----13--13--13----13--13--13--------------------------| 
D|---14--14--14--14--14----14--14--14----14--14--14--------------------------|
A|---------------------------------------------------------------------------|
E|---------------------------------------------------------------------------|
    And kiss me till I bleed...

e|---------------------------------------------------------------------------|
B|---12--12----14--14--12--14--12--12--14--12--12----------------------------|
G|---13--13----13--13--13--13--13--13--13--13--13----------------------------|
D|---14--14----14--14--14--14--14--14--14--14--14----------------------------|
A|---------------------------------------------------------------------------|
E|---------------------------------------------------------------------------|

e|---------------------------------------------------------------------------|
B|---12--12--12--12--12----14--14--12----14--14--12--------------------------|
G|---13--13--13--13--13----13--13--13----13--13--13--------------------------| 
D|---11--11--11--11--11----11--11--11----11--11--11--------------------------|
A|---------------------------------------------------------------------------|
E|---------------------------------------------------------------------------| 
    I don't want anything...

e|---5--5--5--5--5--5----7--7--7--7--7--7------------------------------------|
B|---5--5--5--5--5--5----7--7--7--7--7--7------------------------------------|
G|---6--6--6--6--6--6----8--8--8--8--8--8------------------------------------|
D|---7--7--7--7--7--7----9--9--9--9--9--9------------------------------------|
A|---7--7--7--7--7--7----9--9--9--9--9--9------------------------------------|
E|---5--5--5--5--5--5----7--7--7--7--7--7------------------------------------|
    But all of you...

e|---------------------------------------------------------------------------|
B|---12--12--12--12--12----14--14--12----14--14--12--------------------------|
G|---13--13--13--13--13----13--13--13----13--13--13--------------------------| 
D|---14--14--14--14--14----14--14--14----14--14--14--------------------------|
A|---------------------------------------------------------------------------|
E|---------------------------------------------------------------------------|
    I know I swore I said...

e|---------------------------------------------------------------------------|
B|---12--12----14--14--12--14--12--12--14--12--12----------------------------|
G|---13--13----13--13--13--13--13--13--13--13--13----------------------------|
D|---14--14----14--14--14--14--14--14--14--14--14----------------------------|
A|---------------------------------------------------------------------------|
E|---------------------------------------------------------------------------|
                     

e|---------------------------------------------------------------------------|
B|---12--12--12--12--12----14--14--12----14--14--12--------------------------|
G|---13--13--13--13--13----13--13--13----13--13--13--------------------------| 
D|---11--11--11--11--11----11--11--11----11--11--11--------------------------|
A|---------------------------------------------------------------------------|
E|---------------------------------------------------------------------------| 
    I'll never love again...

e|---5-------------7---------------------------------------------------------|
B|---5--------------7--------------------------------------------------------|
G|---6---------------8-------------------------------------------------------|
D|---7----------------9------------------------------------------------------|
A|---7-----------------9-----------------------------------------------------|
E|---5------------------7----------------------------------------------------|
    But man oh man, you're my best friend...1.2.1.2.3.4...

[Chorus]
e|---------------------------------------------------------------------------|
B|---12--12--12--12--12----14--14--14----16--16--16--------------------------|
G|---13--13--13--13--13----13--13--13----13--13--13--------------------------| x2
D|---14--14--14--14--14----14--14--14----14--14--14--------------------------|
A|---------------------------------------------------------------------------|
E|---------------------------------------------------------------------------|
    Baby, you're hands down the...

e|---------------------------------------------------------------------------|
B|---12--12--12--12--12----14--14--14----12--12--12--------------------------|
G|---13--13--13--13--13----13--13--13----13--13--13--------------------------| x2
D|---11--11--11--11--11----11--11--11----11--11--11--------------------------|
A|---------------------------------------------------------------------------|
E|---------------------------------------------------------------------------|
    ...best thing about me...

e|---------------------------------------------------------------------------|
B|---12--12--12--12--12----14--14--14----16--16--16--------------------------|
G|---13--13--13--13--13----13--13--13----13--13--13--------------------------| x2
D|---14--14--14--14--14----14--14--14----14--14--14--------------------------|
A|---------------------------------------------------------------------------|
E|---------------------------------------------------------------------------|
    And baby, I don't know where...

e|---------------------------------------------------------------------------|
B|---12--12--12--12--12----14--14--14----12--12--12--------------------------|
G|---13--13--13--13--13----13--13--13----13--13--13--------------------------| 
D|---11--11--11--11--11----11--11--11----11--11--11--------------------------|
A|---------------------------------------------------------------------------|
E|---------------------------------------------------------------------------|
    ...I was...

e|---5--5--5--5--5--5----7--7--7--7--7--7------------------------------------|
B|---5--5--5--5--5--5----7--7--7--7--7--7------------------------------------|
G|---6--6--6--6--6--6----8--8--8--8--8--8------------------------------------|
D|---7--7--7--7--7--7----9--9--9--9--9--9------------------------------------|
A|---7--7--7--7--7--7----9--9--9--9--9--9------------------------------------|
E|---5--5--5--5--5--5----7--7--7--7--7--7------------------------------------|
    But i'm so glad you found me...

[Fill]
e|---------------------------------------------------------------------------|
B|---12--12--12--12--12----14--14--14----16--16--16--------------------------|
G|---13--13--13--13--13----13--13--13----13--13--13--------------------------| x2
D|---14--14--14--14--14----14--14--14----14--14--14--------------------------|
A|---------------------------------------------------------------------------|
E|---------------------------------------------------------------------------|
 
e|---------------------------------------------------------------------------|
B|---12--12--12--12--12----14--14--14----12--12--12--------------------------|
G|---13--13--13--13--13----13--13--13----13--13--13--------------------------| x2
D|---11--11--11--11--11----11--11--11----11--11--11--------------------------|
A|---------------------------------------------------------------------------|
E|---------------------------------------------------------------------------|
    ..oooooooooo.....

[Outro]
e|---0------1/4------5------5------------------------------------------------------|
B|---0------1/4------5------5------------------------------------------------------|
G|---1------1/4------6------5------------------------------------------------------|
D|---2------3/6------7------7------------------------------------------------------|
A|---2------3/6------7------7------------------------------------------------------|
E|---0------1/4------5------5------------------------------------------------------|
  
e|---------------------------------------------------------------------------|
B|---------------------------------------------------------------------------|
G|-------12-----12-----12---14---14---12-------------------------------------| x2
D|-----13-----13-----13------------------------------------------------------|
A|---14-----14-----14--------------------------------------------------------|
E|---------------------------------------------------------------------------|
    Baby you know I love you... more than my...

e|---------------------------------------------------------------------------|
B|-------12-----12-----12---14---14---12-------------------------------------|
G|-----13-----13-----13------------------------------------------------------| x2
D|---11-----11-----11--------------------------------------------------------|
A|---------------------------------------------------------------------------|
E|---------------------------------------------------------------------------|
    ...words know how to show you...

e|---------------------------------------------------------------------------|
B|---------------------------------------------------------------------------|
G|-------12-----12-----12---14---14---12-------------------------------------| x2
D|-----13-----13-----13------------------------------------------------------|
A|---14-----14-----14--------------------------------------------------------|
E|---------------------------------------------------------------------------|
    Baby you know I love you... more than my...

e|---------------------------------------------------------------------------|
B|-------12-----12-----12---14---14---12-------------------------------------|
G|-----13-----13-----13------------------------------------------------------| x2
D|---11-----11-----11--------------------------------------------------------|
A|---------------------------------------------------------------------------|
E|---------------------------------------------------------------------------|
    ...words know how to show you...


    
e|---~12--~14--~12--~11--~12--~11--~9--~11--~9--~7---------------------------|
B|---------------------------------------------------------------------------|
G|---------------------------------------------------------------------------|
D|---------------------------------------------------------------------------|
A|---------------------------------------------------------------------------|
E|---------------------------------------------------------------------------|
    Baby you know I love you...More than my words know how to show you...


     
e|---~12--~14--~12--~11--~12--~11--~9--~11--~9--~7---------------------------|
B|---------------------------------------------------------------------------|
G|---------------------------------------------------------------------------|
D|---------------------------------------------------------------------------|
A|---------------------------------------------------------------------------|
E|---------------------------------------------------------------------------|
    Baby you know I love you...More than my words know how to show you...

     
e|---12---14---12---11---12---11---9---11---9---7--------12------------------|
B|---------------------------------------------------------------------------|
G|---------------------------------------------------------------------------|
D|---------------------------------------------------------------------------|
A|---------------------------------------------------------------------------|
E|---------------------------------------------------------------------------|
    Baby you know I love you...More than my words know how to show you...
    I'll show you.




************************************

| x   Dead note
| /   Slide up
| \   Slide down
| ~   Vibrato

************************************

            
            
Suggest correction
Creating personal tab
Creating personal tab
You can edit any tab online and save it as your Personal.

You can edit, replace or remove any tab part or add personal notes – all changes will be seen only by you.

Personal tabs can be accessed anytime from any device, even offline.
Learn more »
comments
print report bad tab
guest
You may want to rate the tab now too:
select rating
Wanna post a correction for this tab? Suggest correction