Oops, an error
Loading. Please wait.

Bed Intruder Song Tab

4,759 views 3 this week
1 commentread comment
1 2 3 4 5
worth learning
x 4
add to favorites
launch autoscroll
font size
0
reset
how to read this tab
guitar tuner
Tab Pro tools
  • play this tab
  • loop segment
  • change instrument
  • show fretboard
  • metronome
Autoscroll
slow
fast
+/-
esc
set tempo
stop
Difficulty
intermediate
Amazzing song :) Enjoy!


--------------------------------------------------|
--------------------------------------------------|
----5-7-7-7-7-5---------5 5 5-------5/7-----------|
-8---------------8---8---------8------------------|
--------------------------------------------------|
--------------------------------------------------|



Tryin to rape em so hide yo kids hide yo wife
-------------------------------------------------------------|
-------------------------------------------------------------|
-------------------------------------------------------------|
-8-10-8-------8---8-------8/10-10-8-----8/10-10--8-----------|
---------10-----10--8----------------------------------------|
-------------------------------------------------------------|

Hide your husband too, cause there raping everyone out here
----------------------------------------------------------------|
----------------------------------------------------------------|
-----------------5----------------------------------------------|
-8--5-------5--------8---5 5 5 5 5--------5---------------------|
-------5-8--------------------------5--8------------------------|
----------------------------------------------------------------|

Chorus

----------------------------------------------------------|
----------------------------------------------------------|
-575--------75----5-875--875------------------------------|
-----58--58----85-------8-----855--858558---8558---8558---|
--------8-------------------------------------------------|
----------------------------------------------------------|

Home boy
----------------------------|
----------------------------|
----------5-7-5-------------|
-------5---------8-5--------|
-----8----------------------|
----------------------------|



You got his t shirt
-6-------------------------------------------|
---6-----------------------------------------|
-----7-8-7----7-7-------5--5----7----5-------|
-------------------8---------------8---------|
---------------------------------------------|
---------------------------------------------|

You are so dumb
-6-----------------------------------------------|
--8----------------------------------------------|
----5--------7-^-----5h 7------------------------|
------5-------------------5-------8--5-----------|
--------------------------------------8----------|
-------------------------------------------------|

The man got away leaving evidence
------------------------------------------|
-----6/8---------6-8-6-8------------------|
-------------8-7--------------7-----------|
--8------------------------------8--------|
-----------------------------------8------|
------------------------------------------|

I was attacked by somebody in the project
-------------------------------------------------------|
-------------------------------------------------------|
-------------------777---------------------------------|
-8-10-8-7----7-10------10-8-8/10-8--8-5--8-5--8-5--12--|
-----------8-------------------------------------------|
-------------------------------------------------------|


--------------------------------------------------------------|
----13-13h-15--15-15-15-13------------13-13-13----13h--15-----|
-15-------------------------15--15-------------15-------------|
--------------------------------------------------------------|
--------------------------------------------------------------|

Tryin to rape em so hide yo kids hide yo wife
-----------------------------------------------------------|
---13------------------------------------------------------|
-15---15-12---15-12-----12----15 /17-17-15----15 /17-17-15-|
---------------------15------------------------------------|
-----------------------------------------------------------|
-----------------------------------------------------------|

Hide your husband too, cause there raping everyone out here
-------------------------------------------------------|
-------------------------------------------------------|
-15-12-----------12-17-----12-12-12-12----------12-----|
--------12h-15---------------------------12h-15--------|
-------------------------------------------------------|
-------------------------------------------------------|

Chorus
---------------------------------------------------------------|
-13-15-13-----------------15-13--------13-16-15----16-15-13----|
----------12-15----12-15---------15-12----------15-------------|
----------------15---------------------------------------------|
---------------------------------------------------------------|
---------------------------------------------------------------|


------------------------------------------------------------|
15-12-12----15-12-15-12-12-15---15-12-12-15----15-12-12-15--|
------------------------------------------------------------|
------------------------------------------------------------|
------------------------------------------------------------|
------------------------------------------------------------|

-------------------------------------------------------------|
-------------13--15--13--------------------------------------|
-------12------------------15---12---------------------------|
--15---------------------------------------------------------|
-------------------------------------------------------------|
-------------------------------------------------------------|
comments
print report bad tab
1 comment total.
0 reply
meggirl308 wrote on February 8 2011, 09:26 pm

this tab is great! :D

I want to post or [tab]
guest
You may want to rate the tab now too:
select rating
Please do not post tabs as comments. Select "correction" instead!