Oops, an error
Loading. Please wait.

Douse The Lamps bass

61 views 3 this week
no commentswrite comment
1 2 3 4 5
3 more votes to show rating
add to favorites
×
Save as Personal and add changes to this tab that will be seen only by you. Learn more ›
×
You can save this tab as Personal to edit and correct it or add notes. All changes will be seen only by you. Learn more »
launch autoscroll
font size
0
reset
guitar tuner
edit
Autoscroll
slow
fast
+/-
esc
set tempo
stop
Author
                                //THE GROWL - DOUSE THE LAMPS//
Tabbed by: bunii
Tuning: Standard

just a little note - i transcribed this from the kick ass wood and wires session verison which is played on a 
double bass. there's no real big difference between the two, only the tempo and the fact that the bridge is 
played on keys in the studio version. 
watch it here: https://www.youtube.com/watch?v=Bsra0lnHH5k

[Intro]
G|-------------------------|------------|
D|-------------------------|------------|
A|-------------------------|------------|
E|-5--5--5--5--6--6--6--6/-|-5--5--5--5-|

G|------------------|--------------|
D|------------------|--------------|
A|------------3-----|---------5555-| x2
E|-5-5-5-5-0h3--5-3-|-6-6-6-6------|


[Verse]
 "You give me one..."
G|------------------|--------------|
D|------------------|--------------|
A|------------3-----|---------5555-| x4
E|-5-5-5-5-0h3--5-3-|-6-6-6-6------|


[Chorus]
 "You're just one of those..."
G|------------------|--------------|
D|------------------|--------------|
A|------------3-----|---------5555-| x2
E|-5-5-5-5-0h3--5-3-|-6-6-6-6------|

G|------------------|------------------|
D|------------------|------------------|
A|------------3-----|------------------| 
E|-5-5-5-5-0h3--5-3-|-5-5-5-5-5-5-5-5\-|


[Pause]


[Verse]
"Hey!"
G|------------------|--------------|
D|------------------|--------------|
A|------------3-----|---------5555-| x8
E|-5-5-5-5-0h3--5-3-|-6-6-6-6------|


[Chorus]
 "You're just one of those..."
G|------------------|--------------|
D|------------------|--------------|
A|------------3-----|---------5555-| x2
E|-5-5-5-5-0h3--5-3-|-6-6-6-6------|

G|------------------|-----------------|
D|------------------|-----------------|
A|------------3-----|-----------------| 
E|-5-5-5-5-0h3--5-3-|-5-5-5-5-5-5-5-5-|

Move straight from the final A of the chorus to the beginning of the bridge- there's no break

[Bridge]
G|---------------------------|
D|---7---5-5-----------------|
A|-5--5-----5------8---------|
E|-----------3--6-6-6--8-6-5-|

"So douse the lamps..."
G|---------------------------|
D|---7---5-5-----------------|
A|-5--5-----5------8---------|
E|-----------3--6-6-6--8-6-5-|

"...skin against my tounge..."
G|---7~--9----------|
D|----------5-5-----|
A|-5----5------5-3--|
E|----------------3-|

"...sharp, deep, breaths from your lungs..."
G|----------------|
D|----------------|
A|----------------|
E|-6~-6~-6~-8~-5~-|


[Chorus]
 "You're just one of those..."
G|------------------|--------------|
D|------------------|--------------|
A|------------3-----|---------5555-| x4
E|-5-5-5-5-0h3--5-3-|-6-6-6-6------|


************************************

| h  Hammer-on
| /  Slide up
| \  Slide down
| ~  Vibrato

************************************

            
            
Suggest correction
Creating personal tab
Creating personal tab
You can edit any tab online and save it as your Personal.

You can edit, replace or remove any tab part or add personal notes – all changes will be seen only by you.

Personal tabs can be accessed anytime from any device, even offline.
Learn more »
Give kudos to tab author, rate the tab!
1 2 3 4 5
comments
print report bad tab
guest
You may want to rate the tab now too:
select rating
Wanna post a correction for this tab? Suggest correction