Oops, an error
Loading. Please wait.

Acid Rain Bass Tab

4,000 views 45 this week
no commentswrite comment
1 2 3 4 5
excellent!
x 6
add to favorites
launch autoscroll
font size
0
reset
guitar tuner
Tab Pro tools
  • play this tab
  • loop segment
  • change instrument
  • show fretboard
  • metronome
Autoscroll
slow
fast
+/-
esc
set tempo
stop
Contributor
Difficulty
novice
Awesome song by a hopefully soon to be famous band. Good for a beginner. Enjoy!

The Growlers - Acid Rain

Intro and verse:
G|---------------------|
D|---------------------|
A|---------------2--0--|
E|-3-3-03-3-03-3-----30|

Chorus:
G|-----------------------------------------|
D|--------------------------------5-2------|
A|2-2-2-52--0-0-0-20-------------------5-2-|
E|-------------------3-3-03-3-03-----------| 

Break:
G|-----------------------------------------|
D|--------------------2-2-2-3-2------------|
A|----------2-2-2-0-2-----------33-22-00-22|
E|3-3-3-0-3--------------------------------|
comments
print report bad tab
I want to post or [tab]
guest
You may want to rate the tab now too:
select rating
Please do not post tabs as comments. Select "correction" instead!