Oops, an error
Loading. Please wait.

Acid Rain Tab

version 1
version 1

Whole song

12,375 views 48 this week
2 commentsread comments
1 2 3 4 5
x 15
add to favorites
launch autoscroll
font size
0
reset
how to read this tab
guitar tuner
Autoscroll
slow
fast
+/-
esc
set tempo
stop
Help us to improve Ultimate-Guitar.com Take our survey!
×
Author
Difficulty
Playing with the song is useful so I put this link up:
http://www.youtube.com/watch?v=ziADG3Swktg

[THE GROWLERS - ACID RAIN]
[Intro]
e|------------------------------------------------------------|
b|-------8---8----8---8-----8--8------------------------------|
g|-----------7----7---7-----7--7------------------------------|
D|----9------------------9------------------------------------|
A|------------------------------------------------------------|
E|------------------------------------------------------------|

[Main Riff](played throughout whole song)

("Last night I think that it rained, and nobody complained...")
e|------------------------------------------------------------|\
b|-----8--8----7--7-------------------------------------------| \
g|----------------------9--9---7--7---7/9--7------------------|  \(8x)
D|-----------------------------------------------9--9--7------|  /
A|------------------------------------------------------------| /
E|------------------------------------------------------------|/

[After the first verse is played 8x, then play]
e|-----7--7--7---10--7--------------------7-------------------|
b|--------------------------10--10--10--------10--------------|
g|------------------------------------------------------------|
D|------------------------------------------------------------|
A|------------------------------------------------------------|
E|------------------------------------------------------------|

e|----10---7--------------------------------------------------|
b|------------10--8-------8-8---------------------------------|
g|--------------------7-7-7-7---------------------------------|
D|------------------------------------------------------------|
A|------------------------------------------------------------|
E|------------------------------------------------------------|

(**Then repeat the Main Riff 4x**)

e|-----7--7--7---10--7--------------------7-------------------|
b|--------------------------10--10--10--------10--------------|
g|------------------------------------------------------------|
D|------------------------------------------------------------|
A|------------------------------------------------------------|
E|------------------------------------------------------------|

e|-----------------------------|----------------7-7-----------|
b|-----7h8p---------8----------|-------8--------6-6-----------|
g|----------7---7/9---9--7-----|-----7---7----6-6-6-----------|
D|-------------------------9---|---9--------------------------|
A|-----------------------------|------------------------------|
E|-----------------------------|------------------------------|

e|-------7-8-7-----------------|------------------------------|
b|-----9------------7--8-9-10--|------8---8----8---8-----8--8-|
g|---9------------6------------|----------7----7---7-----7--7-|
D|--------------7--------------|---9------------------9-------|
A|-----------------------------|------------------------------|
E|-----------------------------|------------------------------|

[Then repeat the Main Riff 8x]
e|-----7--7--7---10--7--------------------7-------------------|
b|--------------------------10--10--10--------10--------------|
g|------------------------------------------------------------|
D|------------------------------------------------------------|
A|------------------------------------------------------------|
E|------------------------------------------------------------|

e|------------------------------------------------------------|
b|-----7h8p---------8---------------------------8-------------|
g|-----------7----9---9--7-----------------7--9---------------|
D|-------------------------9-------------9--------------------|
A|--------------------------10--------------------------------|
E|------------------------------------------------------------|

e|------------------------------------------------------------|
b|----8--7-------------8--------------------------------------|
g|----------9--7--7/9-----9--7---------------7----------------|
D|------------------------------9----------9---9--------------|
A|--------------------------------10--------------10----------|
E|------------------------------------------------------------|

e|------------------------------------------------------------|
b|----8--7-------------8--------------------------------------|
g|----------9--7--7/9-----9--7--------------------------------|
D|------------------------------9-----------------------------|
A|------------------------------------------------------------|
E|------------------------------------------------------------|

e|-----7--7--7---10--7--------------------7-------------------|
b|--------------------------10--10--10--------10--------------|
g|------------------------------------------------------------|
D|------------------------------------------------------------|
A|------------------------------------------------------------|
E|------------------------------------------------------------|

e|----10---7--------------------------------------------------|
b|------------10--8-----8-------------------------------------|
g|--------------------7---------------------------------------|
D|------------------------------------------------------------|
A|------------------------------------------------------------|
E|------------------------------------------------------------|

************************************

| /  Slide up
| h  Hammer-on
| p  Pull-off

************************************
Suggest correction
comments
print report bad tab
2 comments total.
0 reply
allautomwilliam 10 Dec 12, 2014 11:36 AM

awsome work!

0 reply
dkiamc93 10 Oct 06, 2015 02:43 AM

righteous! how about Old 8 Legs?

guest
You may want to rate the tab now too:
select rating
Wanna post a correction for this tab? Suggest correction