Oops, an error
Loading. Please wait.

Blood Of A Mutt solo tab

64 views 6 this week
no commentswrite comment
1 2 3 4 5
3 more votes to show rating
add to favorites
×
Save as Personal and add changes to this tab that will be seen only by you. Learn more ›
×
You can save this tab as Personal to edit and correct it or add notes. All changes will be seen only by you. Learn more »
launch autoscroll
font size
0
reset
how to read this tab
guitar tuner
edit
Autoscroll
slow
fast
+/-
esc
set tempo
stop
About this tab version
1st solo of the song (studio version). Was this info helpful? Yes No
This is the first solo of the song (minute ~2:55 https://www.youtube.com/watch?v=nf-Iq0A-9P)
However I based this tab on the studio version sounds with higher pitch

My first tab, every sugestion and critic is welcome

I would try when I have time to add the second solo.


e|17--17-18--18-19-------|------------------------------------------------------------||
B|--19-----19------------|-17b19r17b19-15--17-15-17b19-17-17b19-17-15-----------------||
G|-------------------/16-|-------------------------------------------16~16~16~--------|| 2x
D|-----------------------|------------------------------------------------------------||
A|-----------------------|------------------------------------------------------------||
E|-----------------------|------------------------------------------------------------||
(the slide 16 at the begining can also be a pre-bend release 16)


e|--------------------------17--(17)--------------------------------------------------|
B|---15-17-15----17-15-17/19--19-----10--10-11--11-12----12-10-----------12-10--------|
G|-16-------(16)-----------------------11-----11--------------11-9-7----------11-9-7--|
D|------------------------------------------------------------------------------------|
A|------------------------------------------------------------------------------------|
E|------------------------------------------------------------------------------------|

e|------------------------------------------------------------------------------------|
B|-10--10-11--------------------------------------------------------------------------|
G|---11-----11\9-7\(5)----------------------------------------------------------------|
D|------------------------------------------------------------------------------------|
A|------------------------------------------------------------------------------------|
E|------------------------------------------------------------------------------------|



************************************

| r    Release
| b    Bend
| /    Slide up
| ~    Vibrato
| (n)  Ghost note
| \    Slide down
 

************************************

            
            
Suggest correction
Creating personal tab
Creating personal tab
You can edit any tab online and save it as your Personal.

You can edit, replace or remove any tab part or add personal notes – all changes will be seen only by you.

Personal tabs can be accessed anytime from any device, even offline.
Learn more »
Give kudos to tab author, rate the tab!
1 2 3 4 5
comments
print report bad tab
guest
You may want to rate the tab now too:
select rating
Wanna post a correction for this tab? Suggest correction