Oops, an error
Loading. Please wait.

Camino Muerto Tab

2,920 views 12 this week
no commentswrite comment
1 2 3 4 5
excellent!
x 3
add to favorites
launch autoscroll
font size
0
reset
how to read this tab
guitar tuner
Tab Pro tools
  • play this tab
  • loop segment
  • change instrument
  • show fretboard
  • metronome
×
Best way to learn
"Camino Muerto"
Autoscroll
slow
fast
+/-
esc
set tempo
stop
Contributor
Difficulty
intermediate

              Here's a link to youtube so you can play with the song:
              http://www.youtube.com/watch?v=7QxZ44QSCdI    
              enjoy.
           
                         ***LOS GROWLERS - CAMINO MUERTO***

      KEY: b = bend
           bb = bend more
           ~ = let it ring
           ~~ = let it ring longer
      

      *INTRO(0:00-0:19)

    e|------------------------------|
    b|-------6------6---------------|
    g|---------7--------------------| *PLAYED 5x
    D|-----------7------------------|
    A|-----5------------------------|
    E|------------------------------|

      *Then the INTRO riff turns into:

    e|------------------------------|
    b|-------6------6---------------|
    g|---------7----7---------------| *PLAYED 7x
    D|-----------7------------------|
    A|-----5------------------------|
    E|------------------------------|
                       
      *0:19-0:25, this riff is played:

    e|-----10----8--------------------------------------------------|
    b|--------------11--10------11--10----8----6--------------------|
    g|---------------------------------------------9----------------|
    D|--------------------------------------------------------------|
    A|--------------------------------------------------------------|
    E|--------------------------------------------------------------|
                                                       
      **0:25-0:38, REPEAT INTRO RIFF 8 TIMES             
                                                      
                                                       
      **0:38-0:44, AGAIN play the riff in seconds 0:19-0:25                  
                                                       
      
      **0:45-0:57, REPEAT INTRO RIFF 8 TIMES                                   

      
      **0:57-1:03, AGAIN play the riff in seconds 0:38-0:44

       
      *1:04-1:16, this riff is played **2 TIMES**

    e|----------5---------------------------------------------------|
    b|----------6---------------------------------------------------|
    g|----------7--7-7-7--9-7--------------------9---------7--------|
    D|------7---7-------------10-7---10-10-10-10---9-9-9-9----------|
    A|---5------5---------------------------------------------------|
    E|--------------------------------------------------------------|


      *1:16-1:34, these chords are played **2 TIMES**
 
    
    e|--5-\-------7-\------8--\-----|
    b|--6--\------8--\-----9---\----|
    g|--7--8x-----9--4x----10--4x---|
    D|--7--/------9--/-----10--/----|
    A|----/---------/---------/-----|
    E|------------------------------|

      *After the chords are played twice, play:

    e|--5--------7---8----\------5~---------------------------------|
    b|----6------8---9-----\-----6~---------------------------------|
    g|------7----9---10----3x----7~---------------------------------|
    D|-----------9---10----/-----7~---------------------------------|
    A|--------------------/------5~---------------------------------|
    E|--------------------------------------------------------------|
    

      *1:36-2:05,


    e|--------------------------10--8--10--8--------\---------------|
    b|--10--10-10-10--11-10~-----------------10~-----\--------------|
    g|-----------------------------------------------2x-------------|
    D|-----------------------------------------------/--------------|
    A|----------------------------------------------/---------------|
    E|---------------------------------------------/----------------|

    
    e|--10--8--10--8---------------------------8--------------------|
    b|----------------11--10~---11-11--11-11------10~---------------|
    g|--------------------------------------------------------------|
    D|--------------------------------------------------------------|
    A|--------------------------------------------------------------|
    E|--------------------------------------------------------------|

 
    e|--10--8--10--8---------------------------8--------------------|
    b|----------------11--10~---11-11--11-11------10--8-------------|
    g|---------------------------------------------------10--9------|
    D|--------------------------------------------------------------|
    A|--------------------------------------------------------------|
    E|--------------------------------------------------------------|


      *2:05-2:29, these chords are played!

      *This riff is played *3 TIMES*

    e|--9b~-------9--9-------12b~---12b~---12-12-12---7-\----8--\---|
    b|--10bb~~----10-10------13bb~~-13bb~~-13-13-13---8--4x--9--4x--|
    g|--11b~------11-11------14b~---14b~---14-14-14---9--/---10-/---|
    D|--11b~------11-11------14b~---14b~---14-14-14---9-/----10/----|
    A|--------------------------------------------------------------|
    E|--------------------------------------------------------------|

      *After the riff above is played on the 3rd time, play this little riff:

    e|--8~----8--8----5~----7-------|
    b|--9~----9--9----6~----8-------|
    g|--10~---10-10---7~----9-------|
    D|--10~---10-10---7~----9-------|
    A|--8~----8--8----5~----7-------|
    E|------------------------------|


      *2:29-2:42, REPEAT INTRO RIFF 8 TIMES

      *2:42-2:48, REPEAT RIFF IN SECONDS 0:19-0:25

      *2:48-3:01, REPEAT INTRO RIFF 8 TIMES

      *3:01-END, REPEAT RIFF IN SECONDS 0:19-0:25, BUT END WITH THIS CHORD:

    e|----5~~-----------------------|
    b|----6~~-----------------------|
    g|----7~~-----------------------|
    D|----7~~-----------------------|
    A|----5~~-----------------------|
    E|----5~~-----------------------|


comments
We did not receive enough feedback on this tab! Please rate:
print report bad tab
1 2 3 4 5
I want to post or [tab]
guest
You may want to rate the tab now too:
select rating
Please do not post tabs as comments. Select "correction" instead!