Oops, an error
Loading. Please wait.

City Club chords

version 2
version 2

Whole song

3,361 views 39 this week
no commentswrite comment
1 2 3 4 5
x 8
add to favorites
×
Save as Personal and add changes to this tab that will be seen only by you. Learn more ›
×
You can save this tab as Personal to edit and correct it or add notes. All changes will be seen only by you. Learn more »
launch autoscroll
font size
0
reset
transpose
0
reset
simplify chords
display chords
guitar tuner
edit
Autoscroll
slow
fast
+/-
esc
set tempo
stop
Strumming
There is no strumming pattern for this song yet. and get +5 IQ
[CHORDS]
Bm7 xxx16-15-17 and 7xx7-10x
Bm6 xxx16-15-16 and 7xx79x
Bm  xxx16-15-14 and 7xx77x
G   355433
A   577655
D   10-12-12-11-10-10
Bm  x24432
G   320033
D   xx0232
F#7 242352

[Intro]
Guitar 
    Bm7 Bm6 Bm   Bm7 Bm6 Bm  Bm7 Bm6 Bm7 Bm6 Bm  Bm  Bm6 Bm Bm
e|--17--16--14---17--16--14--17--16--17--16--14--14--16--14------------------|
B|--15--15--15---15--15--15--15--15--15--15--15--15--15------15~~------------|
G|--16--16--16---16--16--16--16--16--16--16--16--16--16------16~~------------|
D|---------------------------------------------------------------------------|
A|---------------------------------------------------------------------------|
E|---------------------------------------------------------------------------|

[Keyboard]
 Bm7 Bm6 Bm   Bm Bm6 Bm Bm7 Bm6 Bm7 Bm6 Bm  Bm  Bm6 Bm Bm

 Bm7 Bm6 Bm   Bm Bm6 Bm Bm7 Bm6 Bm7 Bm6 Bm  Bm  Bm6 Bm Bm


[Verse 1]
Keyboard arranged for guitar chords
    Bm7  Bm6 Bm  Bm  Bm6 Bm  Bm7  Bm6 Bm7  Bm6 Bm  Bm  Bm6 Bm Bm  
e|---------------------------------------------------------------------------|
B|--10---9---7---7---9---7---10---9---10---9---7---7---9---7-----------------|
G|--7----7---7---7---7---7---7----7---7----7---7---7---7------7--------------|
D|---------------------------------------------------------------------------|
A|---------------------------------------------------------------------------|
E|--7----7---7---7---7---7---7----7---7----7---7---7---7---7--7--------------|

Bm7 Bm6 Bm   Bm Bm6 Bm Bm7 Bm6
She lives in pans at the end of this prison
Bm7 Bm6 Bm  Bm  Bm6 Bm Bm
The love sprouts from the decay
Bm7 Bm6 Bm   Bm Bm6 Bm Bm7 Bm6
The night's pulsing, streets are convulsing
Bm7 Bm6 Bm  Bm  Bm6 Bm Bm
Dark libations through the brain

[Pre-Chorus]
Bm7 Bm6 Bm   Bm Bm6 Bm Bm7 Bm6
I stop trying to make sense of it all
Bm7 Bm6 Bm  Bm  Bm6 Bm Bm
Start sniffing around the continous strife
Bm7 Bm6 Bm   Bm Bm6 Bm Bm7 Bm6
Grab fear by a strange hand
Bm7 Bm6 Bm  Bm  Bm6 Bm Bm
Sweet neglection in her own right

[Solo 1]
Bm7 Bm6 Bm  Bm Bm6 Bm Bm7 Bm6

Bm7 Bm6 Bm  Bm  Bm6 Bm Bm

[Chorus]
G                 A    D
I wouldn't change her, trade or ditch
D          A            G
I love her just the way she is
G         A   D
I'll love her flaws and friends
D               A       G
Don't care what anybody says about her

Bm7 Bm6 Bm  Bm Bm6 Bm Bm7 Bm6

Bm7 Bm6 Bm  Bm  Bm6 Bm Bm


[Verse 2]
Bm7 Bm6 Bm   Bm Bm6 Bm Bm7 Bm6
She has a spear and a vow of mother nature
Bm7 Bm6 Bm  Bm  Bm6 Bm Bm
You'll never know what she'll do
Bm7 Bm6 Bm   Bm Bm6 Bm Bm7 Bm6
Hardened from her mysterious sun
Bm7 Bm6 Bm  Bm  Bm6 Bm Bm
I'm not a muse, I play the fool

[Solo 2]
Bm7 Bm6 Bm  Bm Bm6 Bm Bm7 Bm6

Bm7 Bm6 Bm  Bm  Bm6 Bm Bm

[Pre-Chorus]
Bm7 Bm6 Bm  Bm Bm6 Bm Bm7 Bm6
I stop trying to make sense of it all
Bm7 Bm6 Bm  Bm  Bm6 Bm Bm
Start dancing around the continous strife
Bm7 Bm6 Bm  Bm Bm6 Bm Bm7 Bm6
Grab fear by a strange hand
Bm7 Bm6 Bm  Bm  Bm6 Bm Bm
Keep her cool under the pale moonlight

[Chorus]

G                 A    D
I wouldn't change her, trade or ditch
D          A            G
I love her just the way she is
G         A   D
I'll love her flaws and friends
D               A       G
Don't care what anybody says

G                 A    D
I wouldn't change her, trade or ditch
D          A            G
I love her just the way she is
G         A   D
I'll love her flaws and friends
D               A       G
Don't care what anybody says about her

[Outro]
Bm G D F#7

Bm G D F#7
Suggest correction
Creating personal tab
Creating personal tab
You can edit any tab online and save it as your Personal.

You can edit, replace or remove any tab part or add personal notes – all changes will be seen only by you.

Personal tabs can be accessed anytime from any device, even offline.
Learn more »
comments
print report bad tab
guest
You may want to rate the tab now too:
select rating
Wanna post a correction for this tab? Suggest correction