Oops, an error
Loading. Please wait.

Freedom Children Tab

1,532 views 9 this week
no commentswrite comment
1 2 3 4 5
please rate
add to favorites
launch autoscroll
font size
0
reset
how to read this tab
guitar tuner
Autoscroll
slow
fast
+/-
esc
set tempo
stop
Help us to improve Ultimate-Guitar.com Take our survey!
×
Author
Difficulty
                              FREEDOM CHILDREN
                
    Chances are you probably haven't heard of this one so here it is:
    http://www.youtube.com/watch?v=GER5e405zNc 

    Intro 1st guitar:
    (played whole song)      

    e|-------------------------------------------------|
    b|-------------------------------------------------|
    g|--------2--4b--4--2-----2---4b--2--4--2----------|
    D|-----4---------------4----------------------4----|
    A|-------------------------------------------------|
    E|-------------------------------------------------|


    e|-----2--0--------------------------------------------------------|
    b|------------2-0--------------------------------------------------|
    g|----------------2--------2--4b--4--2-----2---4b--2--4--2---------|
    D|-------------------4---4---------------4----------------------4--|
    A|-----------------------------------------------------------------|
    E|-----------------------------------------------------------------|


    2nd guitar comes in:

    e|-------5-----2--2-2-2/------5-----2--2-2-2/------5-----2--2-1---5--2-|
    b|-----5-5-----2--2-2-2/----5-5-----2--2-2-2/----5-5-----2--2-2---5--2-|
    g|---6---------2--2-2-2/--6---------2--2-2-2/--6---------2--2-----6--2-|
    D|---------------------------------------------------------------------|
    A|---------------------------------------------------------------------|
    E|---------------------------------------------------------------------|

    b=bend
    /=slide up
Suggest correction
Give kudos to tab author, rate the tab!
1 2 3 4 5
comments
print report bad tab
guest
You may want to rate the tab now too:
select rating
Please do not post tabs as comments. Select "correction" instead!