Oops, an error
Loading. Please wait.

Living In A Memory Tab

9,141 views 45 this week
no commentswrite comment
1 2 3 4 5
x 7
add to favorites
launch autoscroll
font size
0
reset
how to read this tab
guitar tuner
Autoscroll
slow
fast
+/-
esc
set tempo
stop
Help us to improve Ultimate-Guitar.com Take our survey!
×
Author
Difficulty
Capo
novice
2nd fret
              Easy to play, but so catchy and fun to play along.
    play along, children - http://www.youtube.com/watch?v=uRXS9t5uLS0


                  ~~~*Living In A Memory* - *The Growlers*~~~



    ~~~**CAPO 2ND FRET**~~~

    Intro: Strum out with the simple rythm

         Amin           C
    e|----0-------------0-------------------------------------------|
    b|----1-------------1-------------------------------------------|
    g|----2-------------0-------------------------------------------|
    D|----2-------------2-------------------------------------------|
    A|--0------------3--3-------------------------------------------|
    E|--------------------------------------------------------------|


    Main riff:

    e|-------------------------5---3-3--5--3--0----0----------------|
    b|--1--1---3-1-----1--3/---------------------5------------------|
    g|--------------2-----------------------------------------------|
    D|--------------------------------------------------------------|
    A|--------------------------------------------------------------|
    E|--------------------------------------------------------------|


    e|--------------------------------------------------------------|
    b|--1--1---3-1-----1--3-3/5---1-----1---------------------------|
    g|--------------2----------------2------------------------------|
    D|--------------------------------------------------------------|
    A|--------------------------------------------------------------|
    E|--------------------------------------------------------------|


    Chorus:

    e|----3~-----5-3-0~---------------3-3--3-3-5-3-----0-0---0-0----|
    b|-----------------------------------------------------5--------|
    g|--------------------------------------------------------------|
    D|--------------------------------------------------------------|
    A|--------------------------------------------------------------|
    E|--------------------------------------------------------------|

                     There ya go. Props, Growlers.

    /= slide up
    ~= let ring
Suggest correction
comments
print report bad tab
guest
You may want to rate the tab now too:
select rating
Wanna post a correction for this tab? Suggest correction