Oops, an error
Loading. Please wait.

Red Tide Bass Tab

1,774 views 6 this week
no commentswrite comment
1 2 3 4 5
2 more votes to show rating
add to favorites
launch autoscroll
font size
0
reset
guitar tuner
Autoscroll
slow
fast
+/-
esc
set tempo
stop
Help us to improve Ultimate-Guitar.com Take our survey!
×
Author
Difficulty
novice
Intro
G|------------------------------------------------------------|
D|-------------------------------------------------------7-5--|
A|-5-5-3-5-5-0-03-5-5-3-5-5-0-03-5-5-3-5-5-0-03-5-5-3-5-5---8-|
E|------------------------------------------------------------|

Verse
G|------------------------------------------------------------|
D|-------------------------------------------------------7-5--|
A|-5-5-3-5-5-0-03-5-5-3-5-5-0-03-5-5-3-5-5-0-03-5-5-3-5-5---8-|
E|------------------------------------------------------------|

G|------------------------------------------------------------|
D|------------------------------------------------------------|
A|-5-5-3-5-5-0-03-5-5-3-5-5-0-03-5-5-3-5-5-0-03-5-5-3-5-5-0-0-|
E|------------------------------------------------------------|

Chorus
G|-----------------------------------------------------------------|
D|-----------------------------------------------------------------|
A|-------------------------------3-55-5-3-5-5-0-03-55-5-3-5-5-0-03-|
E|-1-1-1-1-1-1-1-1-3-3-3-3-3-3-3-----------------------------------|

2nd Verse
G|------------------------------------------------------------|
D|-------------------------------------------------------7-5--|
A|-5-5-3-5-5-0-03-5-5-3-5-5-0-03-5-5-3-5-5-0-03-5-5-3-5-5---8-|
E|------------------------------------------------------------|

G|------------------------------------------------------------|
D|------------------------------------------------------------|
A|-5-5-3-5-5-0-03-5-5-3-5-5-0-03-5-5-3-5-5-0-03-5-5-3-5-5-0-0-|
E|------------------------------------------------------------|

Chorus
G|-----------------------------------------------------------------|
D|-----------------------------------------------------------------|
A|-------------------------------3-55-5-3-5-5-0-03-55-5-3-5-5-0-03-|
E|-1-1-1-1-1-1-1-1-3-3-3-3-3-3-3-----------------------------------|

3rd Verse
G|------------------------------------------------------------|
D|-------------------------------------------------------7-5--|
A|-5-5-3-5-5-0-03-5-5-3-5-5-0-03-5-5-3-5-5-0-03-5-5-3-5-5---8-|
E|------------------------------------------------------------|

G|------------------------------------------------------------|
D|------------------------------------------------------------|
A|-5-5-3-5-5-0-03-5-5-3-5-5-0-03-5-5-3-5-5-0-03-5-5-3-5-5-0-3-|
E|------------------------------------------------------------|

Bridge
G|-------------------------------------------------------------------------|
D|-------------------------------------------------------3-3-3333-5-5-5555-|
A|-0-0-0000-0-0-0000-------------------0-0-0000-0-0-0000-------------------|
E|-------------------3-3-3333-0h3-3333-------------------------------------|

G|--------------------------------------------------------------------------|
D|-------------------------------2p0---------------2p0----------------2p0---|
A|-3-3-3333-3-3-3333-0-0-0000-0-0---3p0---------------3p0-0-0-0000-0-0---3p0|
E|-------------------------------------3-3-3333-3-3-------------------------|

G|-----------------------------------------------------------------------|
D|-3-3-3333-5-5-5555-----------------------3---------------3-------------|
A|-------------------3-3-3330h3-3-3333-0-5---6-5-3h5-555-5---6-5-3h5-555-|
E|-----------------------------------------------------------------------|

G|---------------------------------|
D|---3---------------3-------------|
A|-5---6-5-3h5-555-5---6-5-3h5-555-|
E|---------------------------------|

4th Verse
G|------------------------------------------------------------|
D|-------------------------------------------------------7-5--|
A|-5-5-3-5-5-0-03-5-5-3-5-5-0-03-5-5-3-5-5-0-03-5-5-3-5-5---8-|
E|------------------------------------------------------------|

G|------------------------------------------------------------|
D|------------------------------------------------------------|
A|-5-5-3-5-5-0-03-5-5-3-5-5-0-03-5-5-3-5-5-0-03-5-5-3-5-5-0-3-|
E|------------------------------------------------------------|

End Chorus
G|-----------------------------------------------------------------|
D|-----------------------------------------------------------------|
A|---------------------------------55-5-3-5-5-0-03-55-5-3-5-5-0-03-|
E|-1-1-1-1-1-1-1-1-3-3-3-3-3-3-3-3---------------------------------|

G|---------------------------|
D|---------------------------|
A|-3-55-5-3-5-5-0-03-77-7-7~-|
E|---------------------------|
Suggest correction
Give kudos to tab author, rate the tab!
1 2 3 4 5
comments
print report bad tab
guest
You may want to rate the tab now too:
select rating
Wanna post a correction for this tab? Suggest correction