Oops, an error
Loading. Please wait.

Sea Lion Goth Blues Tab

8,956 views 72 this week
no commentswrite comment
1 2 3 4 5
x 5
add to favorites
launch autoscroll
font size
0
reset
how to read this tab
guitar tuner
Autoscroll
slow
fast
+/-
esc
set tempo
stop
Help us to improve Ultimate-Guitar.com Take our survey!
×
Author
Difficulty
novice
Artist: The Growlers
Song: Sea Lion Goth Blues
Tabbed by Omar Masseoud

[VERSE LEAD]
(Repeat throughout verses)
e|--------------------------------------------------------------------------|
B|-12-12-12-12/---15-15-15/---12-12-12/---15-15-15---15-15-15/---10-10-10---|
G|--------------------------------------------------------------------------|
D|--------------------------------------------------------------------------|
A|--------------------------------------------------------------------------|
E|--------------------------------------------------------------------------|

e|-----------------------------|
B|-10-10-10/---12-12--12-12----|
G|-----------------------------|
D|-----------------------------|
A|-----------------------------|
E|-----------------------------|

[VERSE 1]
(Chords)
E
Ive just been thinking about my will
A                   G
Thinking about what mark Ive made
E
And if I get killed
A                     G
I wonder who'll bring roses to my...

[CHORUS]
(Bass line)

Grave oh oh oh       Oh you never know       when its your time to go   
e|--------------------------------------------------------------------------------|
B|--------------------------------------------------------------------------------|
G|--------------------------------------------------------------------------------|
D|--------------------------------------------------------------0-------0---------|
A|--------------2------2---0---2---5---2------2---0---2---5--------2-------0------|
E|-0---0---3----------------------------------------------------------------------|

          You never know       when youll have to return your soul
e|----------------------------------------------------------------|
B|----------------------------------------------------------------|
G|----------------------------------------------------------------|
D|----------------------------------------------------------------|
A|------------------2---0------2---0---2---5---2---0--------------|
E|---3---0------0---------------------------------------3---0-----|

[VERSE 2]
(Chords)
E
Soul soul 
A    G
Soul soul
E
Sea lions have 8 lives and Ive 
A                    G
gone through 9 and I dont want to die 
E
But I dont know how many I have left 
A                  G
Or how many I have right 
E
How many days or nights youll
A    G        
Be inside my feline 
E
Eyes...

[CHORUS]
(Bass line)

Grave oh oh oh       Oh you never know       when its your time to go   
e|--------------------------------------------------------------------------------|
B|--------------------------------------------------------------------------------|
G|--------------------------------------------------------------------------------|
D|--------------------------------------------------------------0-------0---------|
A|--------------2------2---0---2---5---2------2---0---2---5--------2-------0------|
E|-0---0---3----------------------------------------------------------------------|

          You never know       when youll have to return your soul
e|----------------------------------------------------------------|
B|----------------------------------------------------------------|
G|----------------------------------------------------------------|
D|----------------------------------------------------------------|
A|------------------2---0------2---0---2---5---2---0--------------|
E|---3---0------0---------------------------------------3---0-----|

[VERSE LEAD]
(Repeat throughout verses)
e|--------------------------------------------------------------------------|
B|-12-12-12-12/---15-15-15/---12-12-12/---15-15-15---15-15-15/---10-10-10---|
G|--------------------------------------------------------------------------|
D|--------------------------------------------------------------------------|
A|--------------------------------------------------------------------------|
E|--------------------------------------------------------------------------|

e|-----------------------------|
B|-10-10-10/---12-12--12-12----|
G|-----------------------------|
D|-----------------------------|
A|-----------------------------|
E|-----------------------------|

[CHORUS]
(Bass line)

Grave oh oh oh       Oh you never know       when its your time to go   
e|--------------------------------------------------------------------------------|
B|--------------------------------------------------------------------------------|
G|--------------------------------------------------------------------------------|
D|--------------------------------------------------------------0-------0---------|
A|--------------2------2---0---2---5---2------2---0---2---5--------2-------0------|
E|-0---0---3----------------------------------------------------------------------|

          You never know       when youll have to return your soul
e|----------------------------------------------------------------|
B|----------------------------------------------------------------|
G|----------------------------------------------------------------|
D|----------------------------------------------------------------|
A|------------------2---0------2---0---2---5---2---0--------------|
E|---3---0------0---------------------------------------3---0-----|

************************************

| /  Slide up

************************************
Suggest correction
comments
print report bad tab
guest
You may want to rate the tab now too:
select rating
Wanna post a correction for this tab? Suggest correction