Oops, an error
Loading. Please wait.

The Graveyards Full Tab

5,403 views 3 this week
no commentswrite comment
1 2 3 4 5
1 last vote to show rating
add to favorites
launch autoscroll
font size
0
reset
how to read this tab
guitar tuner
Autoscroll
slow
fast
+/-
esc
set tempo
stop
Help us to improve Ultimate-Guitar.com Take our survey!
×
Difficulty
intermediate
(/) Slide Up  (\) Slide Down  (h) Hammer On  (p) Pull Off  (b) Bend (r) Release (v) Vibrato

THE GRAVEYARDS FULL- THE GROWLERS

INTRO
E|---4---4---6---4---6---2----|
B|---4---4---4---4---4---2----|
G|---5---5---5---5---5---3----|
D|----------------------------|
A|----------------------------|
E|----------------------------|


E|---4---4-- etc. -------9----9-------|
B|---5---5---------------10---10------|
G|---6---6---------------11---11------|
D|---6---6---------------11---11------|
A|------------------------------------|
E|------------------------------------|


E|---5---5---7---5---4---4---5---4------2------2-----|
B|---5---5---5---5---4---4---4---4------2------2-----|
G|---6---6---6---6---5---5---5---5------3------3-----|
D|-----------------------------------2--4---2--4-----|
A|---------------------------------------------------|
E|---------------------------------------------------|


E|--7---9--9--9s7--7--7--7--7s5--5--5--5s7--5--4--4--2--1----2-----|
B|--7--------------------------------------------------------2-----|
G|--8--------------------------------------------------------3-----|
D|--9------------------------------------------------------2-4-----|
A|-----------------------------------------------------------------|
E|-----------------------------------------------------------------|
Suggest correction
Give kudos to tab author, rate the tab!
1 2 3 4 5
comments
print report bad tab
guest
You may want to rate the tab now too:
select rating
Wanna post a correction for this tab? Suggest correction