Oops, an error
Loading. Please wait.

Wet Dreams Tab

7,940 views 24 this week
no commentswrite comment
1 2 3 4 5
excellent!
x 2
add to favorites
launch autoscroll
font size
0
reset
how to read this tab
guitar tuner
Tab Pro tools
  • play this tab
  • loop segment
  • change instrument
  • show fretboard
  • metronome
Autoscroll
slow
fast
+/-
esc
set tempo
stop
Contributor
Difficulty
intermediate
                       This one's called Wet Dreams.
                http://www.youtube.com/watch?v=vUGEs4C30mM


                       Wet + Dreams = los growlers


    Intro starts with an A minor

    e|--------------------------------------------------------------|
    b|--------------------------------------------------------------|
    g|----2---2---2---2---2---2---2---2---2---2---2---2---2---1-----|
    D|------2-------2-------2-------2-------2-------2-------2-------|
    A|--0-------0-------0-------0-------0-------0-------0-----------|
    E|--------------------------------------------------------------|

    e|--------------------------------------------------------------|
    b|--------1-----------------------------------------------------|
    g|----2-------2---1---2---2---2---1---2---2---2---1---2---2-----|
    D|------2-------2-------2-------2-------2-------2-------2-------|
    A|--0-------0-------0-------0-------0-------0-------0-----------|
    E|--------------------------------------------------------------|

    e|--------------------------------------------------------------|
    b|----------------1-------------------------------1---3---1-----|
    g|----2---1---2-------2---1---2---2---2---1---2--------------2--|
    D|------2-------2-------2-------2-------2-------2-------2------2|
    A|--0-------0-------0-------0-------0-------0-------0-----------|
    E|--------------------------------------------------------------|

    e|--------------------------------------1-1-1-|
    b|--------------------------------------1-1-1-|
    g|-2---2---1---2---2---2---1---2---2-0--2-2-2-| Softly whisper
    D|-------2-------2-------2-------2---0--3-3-3-| this cord...
    A|---0-------0-------0-------0-------0--3-3-3-| and build up
    E|--------------------------------------1-1-1-|.................

                           e|-1-1-1-----------------3-0-0-0~--------|
                           b|-1-1-1-----------------3-0-0-1~--------|
                           g|-2-2-2-----------------0-2-0-2~--------|
       build...            D|-3-3-3-----------------0-2-0-2~--------|
                           A|-3-3-3-----------------2-0-0-0~--------|
    .......................E|-1-1-1-----------------3-0-0-0~--------|



    Main Riff: "Haven't had the guts, no I haven't had the balls,
                to tell you all about, the thoughts I can't keep out"

    LEAD GUITAR:

    e|--1--1--0-1--3-1---1--0-1-3-0---------------------------------|
    b|------------------------------1--1--0-1--3-1---1--0-1-3-0-----|
    g|--------------------------------------------------------------|
    D|--------------------------------------------------------------|
    A|--------------------------------------------------------------|
    E|--------------------------------------------------------------|

    RHYTHM GUITAR:(strummed out) 

    e|--1--1--0-1--3-1---1--0-1-3-1-0--0--0-0--0-0---0--0-0-0-0-----|
    b|--3--3--3-3--3-3---3--3-3-3-3-1--1--0-1--3-1---1--0-1-3-1-----|
    g|--2--2--2-2--2-2---2--2-2-2-2-2--2--2-2--2-2---2--2-2-2-2-----|
    D|--0--0--0-0--0-0---0--0-0-0-0-2--2--2-2--2-2---2--2-2-2-2-----|
    A|--------------------------------------------------------------|
    E|--------------------------------------------------------------|
                       







    Chorus: "She's been comin in my head, and there's a devil in our bed"


                           e|-1-1-1----------------3-0-0--0-0-0-0---|
                           b|-1-1-1----------------3-1-0--1-1-1-1---|
                           g|-2-2-2----------------0-2-0--2-2-2-2---|
       build...            D|-3-3-3----------------0-2-0--2-2-2-2---|
                           A|-3-3-3----------------2-0-0--0-0-0-0---|
    .......................E|-1-1-1----------------3-0-0--0-0-0-0---|


    "Wet............ Dreams.............It's not easy comin' clean but   
     my urges cannot wean, I used to fight now I fiend, Wet Dreams..."

    
       STRUM OUTTTTTT....
    e|-0-0-0-0-0-0-0-0------5----------1-------1------1------1------|
    b|-1-1-1-1-1-1-1-1------5----------1----1----1------1------1----|
    g|-2-2-2-2-2-2-2-2------6----------2---2--2----2------2------2--|
    D|-2-2-2-2-2-2-2-2------7----------3--3----------3------3------3|
    A|-0-0-0-0-0-0-0-0------7----------3----------------------------|
    E|-0-0-0-0-0-0-0-0------5----------1----------------------------|

    e|-1------1-----------3-0-0-0-0-0-0-----------------------------|
    b|---1------1---------3-1-0-1-1-1-1-----------------------------|
    g|-----2------2-------0-2-0-2-2-2-2-----------------------------|
    D|-------3------3-----0-2-0-2-2-2-2-----------------------------|
    A|--------------------2-0-0-0-0-0-0-----------------------------|
    E|--------------------3-0-0-0-0-0-0-----------------------------|



    Pretty much all there is to it so there ya go, ultimate-guitarists.


    ~ = let ring
comments
We did not receive enough feedback on this tab! Please rate:
print report bad tab
1 2 3 4 5
I want to post or [tab]
guest
You may want to rate the tab now too:
select rating
Please do not post tabs as comments. Select "correction" instead!