Oops, an error
Loading. Please wait.

When You Were Made W Solo Tab

550 views 72 this week
no commentswrite comment
1 2 3 4 5
x 6
add to favorites
launch autoscroll
font size
0
reset
how to read this tab
guitar tuner
Autoscroll
slow
fast
+/-
esc
set tempo
stop
Help us to improve Ultimate-Guitar.com Take our survey!
×
Author
Difficulty
intermediate
About this tab version
It's easy to figure out from here. Was this info helpful? Yes No
[Intro]

e|---------4-----4---4-/6-6--6---6--7-7-7-9h-7--7-----------|
B|---------4-----4---4-/8--8--8-----9-9------9--7-----------|
G|--6-7-8--4-4-4-4-4-4-/8---8--8----9-9------9--8-----------|  X5
D|--7-8-9---------------------------------------9-----------|
A|----------------------------------------------9-----------|
E|----------------------------------------------7-----------|

          "Her supple breasts........heart grew jaded
e|---------4-----4---4-/6-6--6---6--7-7-7-9h-7--9-----------|
B|---------4-----4---4-/8--8--8-----9-9------9--11----------|
G|--6-7-8--4-4-4-4-4-4-/8---8--8----9-9------9--11----------|  
D|--7-8-9---------------------------------------------------|
A|----------------------------------------------------------|
E|----------------------------------------------------------|

   "A   life   of   love   is   a   long   time..."
e|--7--------------14--------------12------7----------------|
B|--7--------------14--------------12------7----------------|
G|--8--------------15--------------13------8----------------|  
D|--9--------------16--------------14------9----------------|
A|--9--------------16--------------14------9----------------|
E|--7--------------14--------------12------7----------------|



**I'll throw in the solo too cuz why not

e|----------7---7-9-9-9-11-9-7----7-----14-11-9-11-9-11-----|
B|---9-9-9----9-----------------9---9-----------------------|
G|----------------------------------------------------------|  
D|----------------------------------------------------------|
A|----------------------------------------------------------|
E|----------------------------------------------------------|



e|-----7---9-11-9-7--14-16p-11-9--9-11-9-7-9-11-9-7---|
B|---9--9---------------------------------------------------|
G|----------------------------------------------------------|  
D|----------------------------------------------------------|
A|----------------------------------------------------------|
E|----------------------------------------------------------|



e|---9-11-14-11-9-11-7-------|
B|-9-------------------------|
G|---------------------------|  
D|---------------------------|
A|---------------------------|
E|---------------------------|


************************************

| h   Hammer-on
| /   Slide up

************************************
Suggest correction
comments
print report bad tab
guest
You may want to rate the tab now too:
select rating
Wanna post a correction for this tab? Suggest correction